Cifra Club

Next Year

Foo Fighters

Tab de baixo: Principal
exibições 4.716
(verso 1)
G|-----------------------------------------|
D|-----------2-4-5-------------------------| (3x)
A|-----2-3-5-------3-3-3-5/7--5-3-3h5------|
E|-3-5-------------------------------------|

G|-------------0h2p0----------------------------|
D|-5-5-5-5-4---------4h5p0----------------------|
A|--------------------------3-3-3-5/7--5-3-3h5--|
E|----------------------------------------------|

G|------------------------------------|
D|-----------2-4-5--------------------|
A|-----2-3-5-------3-3-3-5-0--0-0-----| 
E|-3-5--------------------------------|

G|-4--5--4--2h4p2---------------------------------------------------|
D|--------------------5--4--2---------------------------------------|
A|------------------------------5-3-2-------------------------------|
E|-------------------------------------5-3--3--3--3---3--3--3--3----|

(refrão 2x)
G|---------------------------------------------------------|
D|---------------------------------------------------------| 
A|-3-3-3-3--3p2-0h2-3h5------------------------------------|
E|----------------------------3---5-5/7--7/8--8/10---------|

G|---------/5-4-2-0-------------------------|
D|------------------------------------------|
A|-3-3-3-3----------4-4-4-4-4-0-2-4-5-------|
E|------------------------------------------|

(ponte 2x)
G|-----------|
D|-0---------|
A|---4-2-----|
E|-------3-5-|

G|----------------------------|
D|----------------------------|
A|-3-3-3-3-3-3-3-3-3-3-3------|
E|----------------------------|

G|-----------|
D|-0---------| (2x)
A|---4-2-----|
E|-------3-5-|

G|---------------------------------------------|
D|---------------------------------------------|
A|-3-3-3-3--3-3-3-3--5-5-2-2-2-2---------------|
E|-------------------------------------3h5-----|

(verso)
G|------------------------------------------|
D|----------------------5-5-----------------|
A|-3-3-3-3--5-5-5-5----------0--0-0-0-------|(2x)
E|---------------------------3--------------|

G|--------------------------|
D|--------------------------|
A|-3-3-3-3--5-5-5-3---------|
E|----------------------3---|
Composição: Foo FightersColaboração e revisão:
  • Marcos Paccanaro

0 comentários

    mostrar mais comentários

    Conseguiu tocar?

    0tocaram0ainda não

    Grave um vídeo tocando Next Year e mande pra gente!

    00:00 / 00:00
    outros vídeos desta música
    repetirqualidadeautomática
    Outro vídeos desta música
      00:00 / 00:00
      automática
      OK