Cifra Club

Shame Shame

Foo Fighters

Cifra: Principal (violão e guitarra)
tom: Am
[Primeira Parte]

        Am                G
E|------------------------------------------|
B|------------------------------------------|
G|------------------------------------------| x2 intro
D|------------------------------------------|
A|------------3---------------1-------------|
E|--5-5--3-5----5-----3-3--1-3--3-----------|

[Primeira Parte]

If you want to
I'll make you feel something real just to bother you
Now I got you
Under my thumb like a drug, I will smother you
I'll be the one, be the Moon, be the Sun
Be the rain in your song, go put that record on
If you want to
I'll be the one, be the tongue that will swallow you

Shame, shame, shame, shame
Shame, shame, shame, shame

[Segunda Parte]

Am               G
Another splinter under the skin
F              D
Another season of loneliness
Am                 G
I found a reason and buried it
F                    D
Beneath the mountain of emptiness

Am        G
Oh-oh-oh, oh-oh-oh
F      D
Oh-oh, oh-oh
Am     G
Oh, oh-oh-oh
F     D
Oh-oh, oh

[Primeira Parte]

        Am                G
E|------------------------------------------|
B|------------------------------------------|
G|------------------------------------------|
D|------------------------------------------|
A|------------3---------------1-------------|
E|--5-5--3-5----5-----3-3--1-3--3-----------|

Shame, shame, shame, shame

Who, what, where, when (shame, shame)
Just move along, nothing wrong till we meet again (shame, shame)
I'll be the end (shame, shame)
I'll be the war at your door, come and let me in (shame, shame)
I'll be the one, be the Moon, be the Sun (shame, shame)
Be the rain in your song, go put that record on (shame, shame)
If you want to (shame, shame)
I'll be the one, be the tongue that will swallow you (shame, shame)

[Segunda Parte]

Am               G
Another splinter under the skin
F              D
Another season of loneliness
Am                 G
I found a reason and buried it
F                    D
Beneath the mountain of emptiness

Am        G
Oh-oh-oh, oh-oh-oh
F      D
Oh-oh, oh-oh
Am     G
Oh, oh-oh-oh
F     D
Oh-oh, oh

[Primeira parte]

        Am                G
E|------------------------------------------|
B|------------------------------------------|
G|------------------------------------------|
D|------------------------------------------|
A|------------3---------------1-------------|
E|--5-5--3-5----5-----3-3--1-3--3-----------|

Shame, shame, shame, shame
Shame, shame, shame, shame

[Segunda Parte]

Am               G
Another splinter under the skin
F              D
Another season of loneliness
Am                 G
I found a reason and buried it
F                    D
Beneath the mountain of emptiness

Am        G
Oh-oh-oh, oh-oh-oh
F      D
Oh-oh, oh-oh
Am     G
Oh, oh-oh-oh
F     D
Oh-oh, oh

[Primeira Parte]

        Am                G
E|------------------------------------------|
B|------------------------------------------|
G|------------------------------------------|
D|------------------------------------------|
A|------------3---------------1-------------|
E|--5-5--3-5----5-----3-3--1-3--3-----------|

Shame, shame, shame, shame
Shame, shame, shame, shame
00:00 / 00:00
Outros vídeos desta música
Repetir
Outros vídeos desta música
Composição de Chris Shiflett / Dave Grohl / MAIS / Pat Smear / Taylor Hawkins
Colaboração e revisão:
  • Kalea Leong-hora
857 exibições
    • ½ Tom
    • Am
    • Bbm
    • Bm
    • Cm
    • C#m
    • Dm
    • Ebm
    • Em
    • Fm
    • F#m
    • Gm
    • G#m
  • Adicionar à lista

    0 comentários

    Ver todos os comentários

    Entre para oCifra Club PRO

    Tenha acesso a benefícios exclusivos no App e no Site

    • Chega de anúncios

    • Prioridade de compra em lançamentos

    • Mais recursos no app do Afinador

    • Atendimento Prioritário

    • Descontos nos produtos Cifra Club

    • Ajude a produzir mais conteúdo

    00:00 / 00:00

    Cifra Club Pro

    Aproveite o Cifra Club com benefícios exclusivos e sem anúncios
    Cifra Club Pro
    Aproveite o Cifra Club com benefícios exclusivos e sem anúncios
    OK