Cifra Club

Aprenda

Cara Esperto

Forfun

Cifra: Principal (violão e guitarra)
Tom: B
(versão acústica)

(intro - toca durante toda a 1ª estrofe)

E|--------------------------------------------------------------------------------
B|--------------------------------------------------------------------------------
G|---4------4--------4--------4------4-----4------4-------4-----4------4-------4--
D|-----4-----4-----4-------4-------4-----4------4-------4-----4------4-------4----
A|-2------2------1-------1-------------------------------------------------2------
E|-----------------------------4-------4------2------2------0------2--------------

Antes era garotinha apaixonada
que me ligava todo dia preocupada
com as coisas que eu fazia na madrugada
mas no fundo, já sabia que eu não valia nada

(violão 1 faz a base - B F# E F# ) (2x)
(violão 2)
(riff)
E|-----------------------------------------------------------------|
B|-----------------------------------------------------------------|
G|-4-4-4-4-4-6-6-6-6-6-9-8-6-6-9-9-8-6-6-8-4-6-8-9-8-6-8-6-6-6-4-6-|
D|-x-x-x-x-x-x-x-x-x-x-x-x-x-x-x-x-x-x-x-x-x-x-x-x-x-x-x-x-x-x-x-x-|
A|-2-2-2-2-2-4-4-4-4-4-7-6-4-4-7-7-6-4-4-6-2-4-6-7-6-4-6-4-4-4-2-4-|
E|-----------------------------------------------------------------|

B                            F#
hoje tenho a vida que sempre quis,
                   G#m
mas será que sou feliz?
                   F#
acho que nunca saberei
B                             F#
garotas ligando e correndo atrás
          G#m         F#
já não me satisfazem mais

          G#m
it´s not ok
                       E
sinto falta de coisas que perdi,
     B                        F#
do lugar onde eu nasci, do colégio que estudei
G#m                      E
amigos vão sem se despedir
                        B               F#
e você já não me faz sorrir, e hoje eu sei
          E (abafado)                        F# (abafado)
que agora eu, que sempre me achei um cara esperto,
                      B    F#
quando vejo você por perto
G#m                    F#
perco a fala e sinto calafrios
E                    F#            B            F#   G#m  F#
e não paro de questionar sobre as voltas que a vida dá
        E        F#
e como tudo mudou de uns tempos pra cá

E|----------------------------------------------------------------
B|----------------------------------------------------------------
G|-4-4-4-4-4-6-6-6-6-6-9-8-6-6-9-9-8-6-6-8-4-6-8-9-8-6-8-6-6-6-4-6
D|-4-4-4-4-4-6-6-6-6-6-9-8-6-6-9-9-8-6-6-8-4-6-8-9-8-6-8-6-6-6-4-6
A|-2-2-2-2-2-4-4-4-4-4-7-6-4-4-7-7-6-4-4-6-2-4-6-7-6-4-6-4-4-4-2-4
E|----------------------------------------------------------------

(tudo abafado)
B                               F#                G#m
não sei por que minhas pernas tremem e eu perco o ar
                    F#
quando pego o elevador
     B        F#                G#m
você mora no décimo primeiro andar
                F#
no fim do corredor
(normal)
                B                     F#
e eu finjo que tanto faz, por mim tá tudo bem
          G#m                           F#
será que viro o boné pra trás ou fico sem?
           B                   F#
as flores são legais, o meu cartão também
            G#m                      F#
mas quando toco a campainha e você vem...
            E (abafado)                       F# (abafado)
eu vejo que eu, que sempre me achei um cara esperto,
                      B   F#
quando vejo você por perto
G#m                    F#
perco a fala e sinto calafrios
E                    F#            B            F#   G#m  F#
e não paro de questionar sobre as voltas que a vida dá
        E          F#        B
e como tudo mudou e sempre vai mudar
Composição de Danilo / Nicolas / Rodrigo / Vitor
Colaboração e revisão:
353.147 exibições
    • ½ Tom
    • A
    • Bb
    • B
    • C
    • Db
    • D
    • Eb
    • E
    • F
    • F#
    • G
    • Ab
  • Adicionar à lista

    0 comentários

    Mostrar mais comentários

    Conseguiu tocar?

    14 Tocaram 1 Ainda não

    Grave um vídeo tocando Cara Esperto e mande pra gente!

    00:00 / 00:00
    outros vídeos desta música
    repetir qualidade Automático
    Outros vídeos desta música
    00:00 / 00:00
    Automático
    OK