Cifra Club

Aprenda

Vó,tô Estourado

Forró Dos Plays

Cifra: Principal (violão e guitarra)
Tom: G
E|----------------19-19-19-19-19----------------19-19-19-19-19--|
B|--17-17-17-17-17----------------17-17-17-17-17----------------|
G|--------------------------------------------------------------|
D|--------------------------------------------------------------|
A|--------------------------------------------------------------|
E|--------------------------------------------------------------|

E|----------------17-17-17-17-17----------------17-17-17-17-17--|
B|--15-15-15-15-15----------------15-15-15-15-15----------------|
G|--------------------------------------------------------------|
D|--------------------------------------------------------------|
A|--------------------------------------------------------------|
E|--------------------------------------------------------------|

E|----------------19-19-19-19-19----------------19-19-19-19-19--|
B|--17-17-17-17-17----------------17-17-17-17-17----------------|
G|--------------------------------------------------------------|
D|--------------------------------------------------------------|
A|--------------------------------------------------------------|
E|--------------------------------------------------------------|

E|----------------17-17-17-17-17----------------------------------------|
B|--15-15-15-15-15----------------15-15-15-15-15---x19-19--17--15-15h17-|
G|----------------------------------------------------------------------|
D|----------------------------------------------------------------------|
A|----------------------------------------------------------------------|
E|----------------------------------------------------------------------|

  C          G
Alô vó, tô estourado
 D         Em
Vó tô estourado
 C          G          D               Em
Vó tô estourado, é bagaceira eu tô largado
 C          G
Vó tô estourado
 D         Em
Vó tô estourado
C          G          D          Em
Vó tô estourado e meu avô é o culpado

E|----------------x17--17-19-17-19----------------x17--17-19-17-19-|
B|-17-17-17-17-17-------------------17-17-17-17-17-----------------|
G|-----------------------------------------------------------------|
D|-----------------------------------------------------------------|
A|-----------------------------------------------------------------|
E|-----------------------------------------------------------------|

E|----------------x15--15-17-15-17----------------x15--15-17-15-17-|
B|--15-15-15-15-15------------------15-15-15-15-15-----------------|
G|-----------------------------------------------------------------|
D|-----------------------------------------------------------------|
A|-----------------------------------------------------------------|
E|-----------------------------------------------------------------|

E|----------------x17--17-19-17-19----------------x17--17-19-17-19-|
B|-17-17-17-17-17-------------------17-17-17-17-17-----------------|
G|-----------------------------------------------------------------|
D|-----------------------------------------------------------------|
A|-----------------------------------------------------------------|
E|-----------------------------------------------------------------|

E|----------------x15--15-17-15-17---------------------------------------|
B|--15-15-15-15-15-----------------15-15-15-15-15---x19-19--17--15-15h17-|
G|-----------------------------------------------------------------------|
D|-----------------------------------------------------------------------|
A|-----------------------------------------------------------------------|
E|-----------------------------------------------------------------------|

Tom: G

Em                     C                             G
Quem me teve foi minha mãe, quem me criou foi minha avó
 D                Em           C                  G
Ela não me deixou só, desde pequeno eu ouvi ela falar,
         D                      Em
Menino estude para um dia se formar.
               C                        G
Ja dizia o meu vô ao contrario da minha avó,
     D                Em                 C                         G
Meu fí faça o que é melhor, escute um conselho que agora eu vou te dar,
                  D                    Em
Não tem coisa no mundo melhor do que farriar,
    C                   G             D               Em
Aos 18 eu não quis nem saber, so de beber, curtir, farriar
          C                           G                D                   Em
Fim de semana, quando eu chego é pra lascar, eu desco logo uma caixa de old par
         C             G
Fim de semana, fazer o que?
  D                Em
Beber, curtir, farriar
          C                    G
E minha avó, a todo tempo  me ligar
             D                        Em
Eu tava na zuada, eu não dava pra escutar

     C          G
Alô vó, tô estourado
 D         Em
Vó tô estourado
 C          G          D               Em
Vó tô estourado, é bagaceira eu tô largado
 C          G
Vó tô estourado
 D         Em
Vó tô estourado
C          G          D          Em
Vó tô estourado e meu avô é o culpado


Em                     C                             G
Quem me teve foi minha mãe, quem me criou foi minha avó
 D                Em           C                  G
Ela não me deixou só, desde pequeno eu ouvi ela falar,
         D                      Em
Menino estude para um dia se formar.
               C                        G
Ja dizia o meu vô ao contrario da minha avó,
     D                Em                 C                         G
Meu fí faça o que é melhor, escute um conselho que agora eu vou te dar,
                  D                    Em
Não tem coisa no mundo melhor do que farriar,
    C                   G             D               Em
Aos 18 eu não quis nem saber, so de beber, curtir, farriar
          C                           G                D                   Em
Fim de semana, quando eu chego é pra lascar, eu desco logo uma caixa de old par
         C             G
Fim de semana, fazer o que?
  D                Em
Beber, curtir, farriar
          C                    G
E minha avó, a todo tempo  me ligar
             D                        Em
Eu tava na zuada, eu não dava pra escutar


    C          G
Alô vó, tô estourado
 D         Em
Vó tô estourado
 C          G          D               Em
Vó tô estourado, é bagaceira eu tô largado
 C          G
Vó tô estourado
 D         Em
Vó tô estourado
C          G          D          Em
Vó tô estourado e meu avô é o culpado
Colaboração e revisão:
  • ricardo lima
3.429 exibições
    • ½ Tom
    • A
    • Bb
    • B
    • C
    • Db
    • D
    • Eb
    • E
    • F
    • F#
    • G
    • Ab
  • Adicionar à lista

    0 comentários

    Mostrar mais comentários

    Conseguiu tocar?

    0 Tocaram 0 Ainda não

    Grave um vídeo tocando Vó,tô Estourado e mande pra gente!

    00:00 / 00:00
    outros vídeos desta música
    repetir qualidade Automático
    Outros vídeos desta música
    00:00 / 00:00
    Automático
    OK