Cifra Club

Aprenda

Bite Hard

Franz Ferdinand

Cifra: Principal (violão e guitarra)
tom: C
(intro)

C   Em   C    Em C    Em    Dm
You dont know i  sing these songs about you
         Em       F#m           Bm             Em           F#m        A
you dont know the Pseudonyms i assume you dont know the Pseudonyms i assume
    Dm
For you

(verso)
Dm              F  G                    F
Are you happier now that the gods are dying?
Dm        C         F             G
Or do you dream of  heston with omnicient beard
Dm                    F  G               F
You should be happier now, with noone to pray to
Dm           C       F                  G
Or would you love to break your knees from beggin and prayin

(refrão)
     Dm              F             G                         F
Bite Hard well its a broken smile, breaking their hearts and breaking their minds
     Dm        C         F                    G
Bite Hard, its 5.05 your engines alive and we ride together, Bite Hard

(synth solo - over the same chords as the verse and chorus)
E|---------------------------------------------------------------------------|
B|---------------------------------------------------------------------------|
G|-----------7-5-4-5---------4-7-7-5-4-5-------------------------------------|
D|-------7------------7---5---------------7----------------------------------|
A|--5-8----------------------------------------------------------------------|
E|---------------------------------------------------------------------------|

E|---------------------------------------------------------------------------|
B|---------------------------------------------------------------------------|
G|-----------7-5-4-2---------------------------------------------------------|
D|-------7-----------2-3----5-3-5-3------------------------------------------|
A|--5-8----------------------------------------------------------------------|
E|---------------------------------------------------------------------------|

(verso)
I may be lonelier now but im happy oh no honest. aint only alone but 
what would we talk about anyway
I'd never resort to kissing your photo, honest. i just had to see
how the chemicals taste their honey

(refrão)
F  G            F   G            F   G           Dm
We ride together we ride together we die together

(solo)
(refrão 3x)
Composição de Franz Ferdinand
Colaboração e revisão:
  • danação zumbi
2.301 exibições
    • ½ Tom
    • A
    • Bb
    • B
    • C
    • Db
    • D
    • Eb
    • E
    • F
    • F#
    • G
    • Ab
  • Adicionar à lista

    0 comentários

    Ver todos os comentários

    Conseguiu tocar?

    1 Tocaram 0 Ainda não

    Grave um vídeo tocando Bite Hard e nos envie!

    00:00 / 00:00
    outros vídeos desta música
    repetir qualidade Automático
    Outros vídeos desta música
    00:00 / 00:00
    Automático

    Cifra Club Pro

    Aproveite o Cifra Club com benefícios exclusivos e sem anúncios
    Cifra Club Pro
    Aproveite o Cifra Club com benefícios exclusivos e sem anúncios
    OK