Cifra Club

Aprenda

A Dama da Noite

Fred e Gustavo

Cifra: Principal (violão e guitarra)
tom: B
[Intro] B  G#m  C#m  F#

E|-----------------------------2-2-2/4/2--|
B|---------------------4-----4------------|
G|---4-3h4p3----3-3h4------4--------------|
D|-----------6----------------------------|
A|----------------------------------------|
E|----------------------------------------|

E|------------------6---------------------|
B|--5p4------------7----------------------|
G|--------6~---4/6------------------------|
D|----------------------------------------|
A|----------------------------------------|
E|----------------------------------------|

[Primeira Parte]

            G#m
Toda noite vem
                C#m
Buscar meu coração
              F#
Levar o meu amor
             B
Pra sua coleção
                 G#m
Seu vício é dominar
               C#m
Seu toque é fatal
             D#7               G#m
Me ama como louca que parece real

Quando nasce o sol
                C#m
Eu olho para o lado
              F#
Me vejo no espelho
                   B
Meu corpo está marcado
              G#m
Ela já foi embora
                 C#m
Sempre na mesma hora
                D#7                 G#m    G#7
Provar outro sabor mas a noite ela volta

[Segunda Parte]

    C#m      F#
Eu sei  que vou
        B           F#/A#
Te esperar mais uma vez
            G#m            F#
Dentro do quarto em minha cama
     C#m  F#
Mais uma vez
         B            F#/A#
Me entregar ao seu veneno
      G#m          F#  E
Já sabendo que não ama
                        F#
Mesmo sabendo que não ama

[Refrão]

                  B
Por que é tão maldita?
                          F#
A dama da noite dos meus sonhos
                              C#m
A mulher que me faz perder o sono
                        E    F#
Que vem e vai e a saudade fica
                  B
Por que é tão maldita?
                          F#
A dama da noite dos meus sonhos
                              C#m
A mulher que me faz perder o sono
                           E  F#
Veneno que meu corpo necessita
                   G#m
Por que é tão maldita?

[Solo] C#m  F#  B  G#m
       C#m  D#7  G#m  G#7

E|-2-2-4-4-2-2/6-6-6-6--------------------|
B|-4-4-5-5-4-4/7-7-7-7--------------------|
G|----------------------------------------|
D|----------------------------------------|
A|----------------------------------------|
E|----------------------------------------|

E|----------------------------------------|
B|---7-6h7p6-----7-6h7p6------------------|
G|-6---------8-6---------8-6--9-8-6-------|
D|----------------------------------------|
A|----------------------------------------|
E|----------------------------------------|

E|----------------------------------------|
B|-------------7-7h9--7h9p7---------------|
G|-6-6-6--8-9-----------------------------|
D|----------------------------------------|
A|----------------------------------------|
E|----------------------------------------|

E|--------------6-6-----------------------|
B|--------------------7h6-----------------|
G|-9-8-4------4/6----------8-6-9----------|
D|----------------------------------------|
A|----------------------------------------|
E|----------------------------------------|

[Segunda Parte]

    C#m      F#
Eu sei  que vou
        B           F#/A#
Te esperar mais uma vez
            G#m            F#
Dentro do quarto em minha cama
     C#m  F#
Mais uma vez
         B            F#/A#
Me entregar ao seu veneno
      G#m          F#  E
Já sabendo que não ama
                        F#
Mesmo sabendo que não ama

[Refrão]

                  B
Por que é tão maldita?
                          F#
A dama da noite dos meus sonhos
                              C#m
A mulher que me faz perder o sono
                        E    F#
Que vem e vai e a saudade fica
                  B
Por que é tão maldita?
                          F#
A dama da noite dos meus sonhos
                              C#m
A mulher que me faz perder o sono
                           E  F#
Veneno que meu corpo necessita

                  B
Por que é tão maldita?
                          F#
A dama da noite dos meus sonhos
                              C#m
A mulher que me faz perder o sono
                        E    F#
Que vem e vai e a saudade fica
                  B
Por que é tão maldita?
                          F#
A dama da noite dos meus sonhos
                              C#m
A mulher que me faz perder o sono
                           E  F#
Veneno que meu corpo necessita
                   G#m
Por que é tão maldita?
160.875 exibições
    • ½ Tom
    • A
    • Bb
    • B
    • C
    • Db
    • D
    • Eb
    • E
    • F
    • F#
    • G
    • Ab
  • Adicionar à lista

    0 comentários

    Ver todos os comentários
    00:00 / 00:00
    outros vídeos desta música
    repetir qualidade Automático
    Outros vídeos desta música
    00:00 / 00:00
    Automático

    Cifra Club Pro

    Aproveite o Cifra Club com benefícios exclusivos e sem anúncios
    Cifra Club Pro
    Aproveite o Cifra Club com benefícios exclusivos e sem anúncios
    OK