Cifra Club

Eu Seguirei

Frei Gilson

Cifra: Principal (violão e guitarra)
Selo Cifra Club: esta cifra foi revisada para atender aos critérios oficiais da nossa Equipe de Qualidade.
tom: E
[Intro] F#m7(11)  A2  E9
        F#m7(11)  A2  E9

[Tab - Intro]

Parte 1 de 4
E|-----------------------------------------------------|
B|-10-10-10-10-10-10-10-10/14-14-14-14-14-14-14-14-14--|
G|-----------------------------------------------------|
D|-----------------------------------------------------|
A|-----------------------------------------------------|
E|-----------------------------------------------------|

Parte 2 de 4
E|-----------------------------------------------------|
B|-\9-9-9-9-9-9-9-9-9--7-7-7-7--7-7-7-7/10-10-10-10-10-|
G|-----------------------------------------------------|
D|-----------------------------------------------------|
A|-----------------------------------------------------|
E|-----------------------------------------------------|

Parte 3 de 4
E|-----------------------------------------------------|
B|-10-10-10-10/14-14-14-14-14-14-14-14-14\9-9-9-9-9----|
G|-----------------------------------------------------|
D|-----------------------------------------------------|
A|-----------------------------------------------------|
E|-----------------------------------------------------|

Parte 4 de 4
E|-----------------------------------------------------|
B|-9-9-9-9--9-9-9-9--9-9-9-9--9------------------------|
G|-----------------------------------------------------|
D|-----------------------------------------------------|
A|-----------------------------------------------------|
E|-----------------------------------------------------|

[Primeira Parte]

    E      D2
Eu vou deixar-me guiar
                          E
E me abandonar no teu querer
    D2
Preciso fazer a Tua vontade
          E
Em minha vida

           D2
Eu vou deixar-me guiar
                          E
E me abandonar no teu querer
    D2
Preciso fazer a Tua vontade
          E
Em minha vida

[Pré-Refrão]

               F#m7(11)  A2
Para onde eu irei?
               E9
Em quem me apoiarei?
               F#m7(11)  A2
Para onde eu irei?
               E9
Em quem me apoiarei?

[Refrão]

         B4
Eu seguirei
     A9                 E9
Eu irei aonde fores Senhor
         B4
Eu seguirei
     A9                 E9
Eu irei aonde fores Senhor
              F#m7(11)  A2
Tua graça me basta

                E9
Teu amor me sustenta
              F#m7(11)  A2
Tua graça me basta
                E9
Teu amor me sustenta

( F#m7(11)  A2  E9 )
( F#m7(11)  A2  E9 )

[Tab - Intro]

Parte 1 de 4
E|-----------------------------------------------------|
B|-10-10-10-10-10-10-10-10/14-14-14-14-14-14-14-14-14--|
G|-----------------------------------------------------|
D|-----------------------------------------------------|
A|-----------------------------------------------------|
E|-----------------------------------------------------|

Parte 2 de 4
E|-----------------------------------------------------|
B|-\9-9-9-9-9-9-9-9-9--7-7-7-7--7-7-7-7/10-10-10-10-10-|
G|-----------------------------------------------------|
D|-----------------------------------------------------|
A|-----------------------------------------------------|
E|-----------------------------------------------------|

Parte 3 de 4
E|-----------------------------------------------------|
B|-10-10-10-10/14-14-14-14-14-14-14-14-14\9-9-9-9-9----|
G|-----------------------------------------------------|
D|-----------------------------------------------------|
A|-----------------------------------------------------|
E|-----------------------------------------------------|

Parte 4 de 4
E|-----------------------------------------------------|
B|-9-9-9-9--9-9-9-9--9-9-9-9--9------------------------|
G|-----------------------------------------------------|
D|-----------------------------------------------------|
A|-----------------------------------------------------|
E|-----------------------------------------------------|

[Primeira Parte]

    E      D2
Eu vou deixar-me guiar
                          E
E me abandonar no teu querer
    D2
Preciso fazer a Tua vontade
          E
Em minha vida

[Pré-Refrão]

               F#m7(11)  A2
Para onde eu irei?
               E9
Em quem me apoiarei?
               F#m7(11)  A2
Para onde eu irei?
               E9
Em quem me apoiarei?

[Refrão]

         B4
Eu seguirei
     A9                 E9
Eu irei aonde fores Senhor
         B4
Eu seguirei
     A9                 E9
Eu irei aonde fores Senhor
              F#m7(11)  A2
Tua graça me basta
                E9
Teu amor me sustenta
              F#m7(11)  A2
Tua graça me basta
                E9
Teu amor me sustenta

( A2  C#m  B4 )
( A2  C#m  B4 )

[Tab - Solo 1]

Parte 1 de 4
E|-----------------------------------------------------|
B|-10-10-10-10--10-10-10-10/14-14-14-14-14-14-14-14-14-|
G|-----------------------------------------------------|
D|-----------------------------------------------------|
A|-----------------------------------------------------|
E|-----------------------------------------------------|

Parte 2 de 4
E|-----------------------------------------------------|
B|-\12-12-12-12-12-12-12-12-12/7-7-7-7-7-7-7-7-7/10----|
G|-----------------------------------------------------|
D|-----------------------------------------------------|
A|-----------------------------------------------------|
E|-----------------------------------------------------|

Parte 3 de 4
E|-----------------------------------------------------|
B|-10-10-10-10-10-10-10-10/14-14-14-14-14-14-14-14-14--|
G|-----------------------------------------------------|
D|-----------------------------------------------------|
A|-----------------------------------------------------|
E|-----------------------------------------------------|

Parte 4 de 4
E|-----------------------------------------------------|
B|-\12-12-12-12-12--12-12-12-12/7-7-7-7-7-7-7-7-7/10---|
G|-----------------------------------------------------|
D|-----------------------------------------------------|
A|-----------------------------------------------------|
E|-----------------------------------------------------|

[Ponte]

               A2
Eu te seguirei
               C#m
Eu te seguirei
            B4  F#m7(11)/C#
Eu te seguirei
               A2
Eu te seguirei
               E
Eu te seguirei
            B4  C#m
Eu te seguirei

               A2
Eu te seguirei
               C#m
Eu te seguirei
            B4  F#m7(11)/C#
Eu te seguirei
               A2
Eu te seguirei
               E
Eu te seguirei
               B4
Eu te seguirei

( F#m7(11)  A2  E9 )

[Tab - Solo 2]

Parte 1 de 2
E|-----------------------------------------------------|
B|-10-10-10-10-10-10-10-10/14-14-14-14-14-14-14-14-14--|
G|-----------------------------------------------------|
D|-----------------------------------------------------|
A|-----------------------------------------------------|
E|-----------------------------------------------------|

Parte 2 de 2
E|-----------------5-5--7-7-9-9--11-11-12-12-----------|
B|-\5-5-5-7-7--9-9----------------------------12~------|
G|-----------------------------------------------------|
D|-----------------------------------------------------|
A|-----------------------------------------------------|
E|-----------------------------------------------------|

[Refrão]

         B4
Eu seguirei
     A9                 E9
Eu irei aonde fores Senhor
         B4
Eu seguirei
     A9                 E9
Eu irei aonde fores Senhor
              F#m7(11)  A2
Tua graça me basta
                E9
Teu amor me sustenta
              F#m7(11)  A2
Tua graça me basta
                E9
Teu amor me sustenta

         B4
Eu seguirei
     A9                 E9
Eu irei aonde fores Senhor
         B4
Eu seguirei
     A9                 E9
Eu irei aonde fores Senhor
              F#m7(11)  A2
Tua graça me basta
                E9
Teu amor me sustenta
              F#m7(11)  A2
Tua graça me basta
                E9
Teu amor me sustenta

[Final] F#m7(11) A2 E9

[Tab - Solo 3]

Parte 1 de 1
E|-----------------------------------------------------|
B|-10-10-10-10--10-10-10-10/14-14-14-14-14-14-14-14-12-|
G|-----------------------------------------------------|
D|-----------------------------------------------------|
A|-----------------------------------------------------|
E|-----------------------------------------------------|
Outros vídeos desta música
818.624 exibições
  • Simplificar cifra
    • ½ Tom
    • A
    • Bb
    • B
    • C
    • Db
    • D
    • Eb
    • E
    • F
    • F#
    • G
    • Ab
  • Adicionar à lista

Afinação da cifra

Afinador online

    0 comentários

    Ver todos os comentários

    Entre para o Cifra Club PRO

    Tenha acesso a benefícios exclusivos no App e no Site

    • Chega de anúncios

    • Mais recursos no app do Afinador

    • Atendimento Prioritário

    • Aumente seu limite de lista

    • Ajude a produzir mais conteúdo

    Capítulos
    • Apresentação
    • Intro
    • Primeira Parte
    • Pré-Refrão
    • Refrão
    • Repetição da Intro
    • Segunda Parte
    • Pré-Refrão
    • Refrão
    • Solo 1
    • Ponte
    • Solo 2
    • Refrão Final
    • Solo Final
    • Encerramento

    Cifra Club Pro

    Aproveite o Cifra Club com benefícios exclusivos e sem anúncios
    Cifra Club Pro
    Aproveite o Cifra Club com benefícios exclusivos e sem anúncios
    OK