Cifra Club

Não Leve a Mal

Fresno

Cifra: Principal
exibições 69.890
Tom: G
            G
Não leve a mal
    D                 G
Se tudo que eu posso fazer
       D              C
É de longe observar você
   Bm             Am
Sumindo da minha vida
            G
Não leve a mal
       D                 G
Seus passos eu não vou seguir
     D                  C
O Destino é tão longe daqui
     Bm       Am    D
Essa não é a saída
           G
Não leve a mal
              C/G       D
Se o que eu quero é voltar
         G         C        D
O mundo real ainda é o meu lugar
       D
Não se vá
       Em
Não assim
       C
Não agora
            G  D
Não leve a mal

Solo:
E|-----9--6------9--6---------------|
B|---7---------7-------9-7-6-7-9-6--|
G|-8---------8----------------------|
D|----------------------------------|
A|----------------------------------|
E|----------------------------------|

E|-------6----------9--6------9--6--|
B|-6-7-9---9-7----7---------7-------|
G|--------------8---------8---------|
D|----------------------------------|
A|----------------------------------|
E|----------------------------------|

E|-----------9-------9--------------|
B|-9-7-6-7-9---6-7-9----------------|
G|----------------------------------|
D|----------------------------------|
A|----------------------------------|
E|----------------------------------|

            C
Não leve a mal(Não me leve a mal)
       Bm             Em
Se eu não pude fazer igual(Não me leve a mal)
       Bm            C
Eu tenho tanto pra viver(Não me leve a mal)
      D         Em    Bm
Sem você aqui comigo
           C
Não leve a mal
       D                     Em
Se eu não quis alçar voo ao céu
     Bm              C
Eu fico aqui a te esperar
      D     Em
Você vai chover
            G
Não leve a mal
              C/G     D
Se o que eu quero é voltar
         G      C           D
O mundo real ainda é o meu lugar
       Em
Não se vá(Não se vá)
       C
Não assim(Não assim)
       G   A
Não agora
       C
Não se vá(Não se vá)
       D
Não se vá(Não se vá)
           C   G  D
Não leve a mal
           G
Não leve a mal
Acordes para:
    Composição: Lucas Silveira / Rodrigo TavaresColaboração e revisão:
    • João Lucas
    • Thaiane Queiroz
    • lucas cantarelli

    0 comentários

      mostrar mais comentários

      Conseguiu tocar?

      18tocaram0ainda não

      Grave um vídeo tocando Não Leve a Mal e mande pra gente!

      00:00 / 00:00
      outros vídeos desta música
      repetirqualidadeautomática
      Outro vídeos desta música
        00:00 / 00:00
        automática
        OK