Cifra Club

Aprenda

Won't Back Down

Fuel

Cifra: Principal (violão e guitarra)
tom: C (forma dos acordes no tom de D) Afinação: D G C F A D
G|-----------------------------------------|
D|-----------------------------------------|
A|-3/x----3/x----3/x-------33333333-3/5----|
D|-3/x----3/x----3/x-------33333333-3/5----|

"Yeahhhhhhhh"

G|----------------------------------------------------------|
D|----------------------------------------------------------|
A|-1-1-1-1-1/10--8-8-8-8-8-10-10-10-10-10-55-5-5-5-3--------|
D|-1-1-1-1-1/10--8-8-8-8-8-10-10-10-10-10-55-5-5-5-3--------|
repeat once

[Primeira Parte]

G|------------------------------------------|
D|------------------------------------------|
A|------------------------------------------|
D|-0-10-9-8-7-0-7777---3/5-5/3--------------|

G|------------------------------------------|
D|------------------------------------------|
A|------------------------------------------|
D|-0-10-9-8-7-0-7777----3/5-----------------|

"Im coming for you"

Refrão 1
"I wont back down"

G|-----------------------------------------------------|
D|-----------------------------------------------------|
A|-1-1-1-1-1/10--8-8-8-8-8-10-10-10-10-10-55-5-5-5-3---|
D|-1-1-1-1-1/10--8-8-8-8-8-10-10-10-10-10-55-5-5-5-3---|

[Segunda Parte]

G|------------------------------------------|
D|------------------------------------------|
A|------------------------------------------|
D|-0-10-9-8-7-0-7777---3/5-5/3--------------|

G|------------------------------------------|
D|------------------------------------------|
A|------------------------------------------|
D|-0-10-9-8-7-0-7777----3/0-----------------|

"Im coming for you"

[Refrão 2]

"I wont back down"

G|-----------------------------------------------------|
D|-----------------------------------------------------|
A|-1-1-1-1-1/10--8-8-8-8-8-10-10-10-10-10-55-5-5-5-3---|
D|-1-1-1-1-1/10--8-8-8-8-8-10-10-10-10-10-55-5-5-5-3---|

G|----------------------------------------------------------|
D|----------------------------------------------------------|
A|-1-1-1-1-1/10--8-8-8-8-8-10-10-10-10-10-5555555-3/8-------|
D|-1-1-1-1-1/10--8-8-8-8-8-10-10-10-10-10-5555555-3/8-------|

"All the scars that never heal"

G|----------------------------------------------------------|
D|----------------------------------------------------------|
A|-888888-777-1010101010------------------------------------|
D|-888888-777-1010101010------------------------------------| (3x)

"These memories never fall"
G|----------------------------------------------------------|
D|----------------------------------------------------------|
A|-88888-10-10-10-10-10-10----------------------------------|
D|-88888-10-10-10-10-10-10----------------------------------|

G|----------------------------------------------------------|
D|----------------------------------------------------------|
A|-3-3-3-3-3-3-3-8~-----------3-3-3-3-55-3--3-3-3-55--------|
D|-3-3-3-3-3-3-3-8~-----------3-3-3-3-55-3--3-3-3-55--------|

[Refrão 3]

"I wont back down"

G|-----------------------------------------------------|
D|-----------------------------------------------------|
A|-1-1-1-1-1/10--8-8-8-8-8-10-10-10-10-10-55-5-55-3----|
D|-1-1-1-1-1/10--8-8-8-8-8-10-10-10-10-10-55-5-55-3----|

G|----------------------------------------------------------|
D|----------------------------------------------------------|
A|-1-1-1-1-1/10--8-8-8-8-8-10-10-10-10-10-5555555-3---------|
D|-1-1-1-1-1/10--8-8-8-8-8-10-10-10-10-10-5555555-3---------|

"I've come to bring you hell"
G|------------------------------|
D|------------------------------|
A|-8-8-8-8/10-10-10-10-10-------| (4x)
D|-8-8-8-8/10-10-10-10-10-------|

I know what darkness means
(and the void you learned from me)
The isolation steams
(So I think it wants to bleed)
The echoes in my brain
(All the things you said to me)
You took my everything
Now I'm coming for you!

I won't back down
I will not bow
I've come to bring you hell
I can't forget
Things you did
I've come to bring you hell

The shadows that you see
(In the places that you sleep)
Are memories of me
(Better pray your soul to keep)
The truth behind your eyes
(You know the thing you never see)
Your darkest little lies
I'm coming for you!

All the scars that never heal
All the wounds that will not seal
I will not forget the day
These memories never fall

I've come to bring you hell
(I've come to bring you hell)
Composição de Carl Bell
Colaboração e revisão:
  • Greg Silva
1 exibições
    • ½ Tom
    • A
    • Bb
    • B
    • C
    • Db
    • D
    • Eb
    • E
    • F
    • F#
    • G
    • Ab
  • Adicionar à lista

    0 comentários

    Ver todos os comentários

    Conseguiu tocar?

    1 Tocaram 0 Ainda não

    Grave um vídeo tocando Won't Back Down e nos envie!

    00:00 / 00:00
    outros vídeos desta música
    repetir qualidade Automático
    Outros vídeos desta música
    00:00 / 00:00
    Automático

    Cifra Club Pro

    Aproveite o Cifra Club com benefícios exclusivos e sem anúncios
    Cifra Club Pro
    Aproveite o Cifra Club com benefícios exclusivos e sem anúncios
    OK