Cifra Club

Super Stupid

Funkadelic

Cifra: Principal (violão e guitarra)
Selo Cifra Club: esta cifra foi revisada para atender aos critérios oficiais da nossa Equipe de Qualidade.
tom: F#m
Intro:
     1    1   1       1                       1
E|---------------------------------------------------------|
B|--15b--15b-15b-----15b-15-12-15-12---------15b-15-12-15--|
G|-----------------------------------14-12-----------------|
D|---------------------------------------------------------|
A|---------------------------------------------------------|
E|---------------------------------------------------------|
        
        start slowing down..................
E|---------------------------------------------------------|
B|--12----12-----------------------------------------------|
G|-----14----14-12-14-12----12-----------------------------|
D|-----------------------14----14-12-14-12----12-----------|
A|-----------------------------------------14----14-12-----|
E|---------------------------------------------------------|

                        1/2        1/2
E|---------------------------------------------------------|
B|---------------------------------------------------------|
G|---------------------------------------------------------|
D|---------------------------------------------------------|
A|--11~-----------------11br-------11br~\------------------|
E|---------------------------------------------------------|

Main Riff:
         1      1                  1      1          (3 1/2x)
E|-------------------x-x-----------------------------------|
B|-------------------x-x-----------------------------------|
G|-------------------x-x-----------------------------------|
D|-------------------x-x-----------------------------------|
A|--7-5--------------x-x------7-5--------------------------|
E|------77/5br--3br/0-x-x-5h7------7-5br-0-3b-0~-----------|


     1
E|---------------------------------------------------------|
B|---------------------------------------------------------|
G|--14brp12-14-12-14-12------------------------------------|
D|----------------------14-14~\----------------------------|
A|---------------------------------------------------------|
E|---------------------------------------------------------|



Verse:

                        (4x)
E|----------------------------|
B|----------------------------|
G|--7/9-x-9-9----6/7-x-7-7----|
D|--7/9-x-9-9----6/7-x-7-7----|
A|--5/7-x-7-7----4/5-x-7-7----|
E|----------------------------| After last time end on e power chord and let ring.


Chorus:



E|------------x---------------------------------------x--|
B|------------x---------------------------------------x--|
G|--7/9-x-9-9-x--------------6/7-x-7-7\/\/--7/9-x-9-9-x--|
D|--7/9-x-9-9-x-5-5----------6/7-x-7-7\/\/--7/9-x-9-9-x--|
A|--5/7-x-7-7-x-----7-5------4/5-x-5-5\/\/--5/7-x-7-7-x--|
E|------------x---------5-3~--------------------------x--|

        (2x)
E|---------------------------|
B|---------------------------|
G|----------------6/7-x-7-7--|
D|--5-5---5-7-5~--6/7-x-7-7--|
A|------7---------4/5-x-5-5--|
E|---------------------------|


last time end with repeated:
E|--------------|
B|--------------|
G|--6/7-x-7-7/--|
D|--6/7-x-7-7/--|
A|--4/5-x-5-5/--|
E|--------------|
Outros vídeos desta música
    51 exibições
      • ½ Tom
      • Am
      • Bbm
      • Bm
      • Cm
      • C#m
      • Dm
      • Ebm
      • Em
      • Fm
      • F#m
      • Gm
      • G#m
    • Adicionar à lista

    Afinação da cifra

    Afinador online

      0 comentários

      Ver todos os comentários

      Entre para o Cifra Club PRO

      Tenha acesso a benefícios exclusivos no App e no Site

      • Chega de anúncios

      • Badges exclusivas

      • Mais recursos no app do Afinador

      • Atendimento Prioritário

      • Aumente seu limite de lista

      • Ajude a produzir mais conteúdo

      Cifra Club Pro

      Aproveite o Cifra Club com benefícios exclusivos e sem anúncios
      Cifra Club Pro
      Aproveite o Cifra Club com benefícios exclusivos e sem anúncios
      Ops (: Contenido disponible sólo en portugués.
      OK