Cifra Club

Eu Sou Teu (Rooftops)

Gabriela Rocha

Cifra: Principal (violão e guitarra)
exibições 333.576
Tom: F#
[Intro]  D#m  B  D#m  B

[Solo]

E|---------------------------------------14----------|
B|-------11~---------11--7-----11~-11h12----11-------|
G|---8--------11h13----------------------------------|
D|--------------------------9------------------------|
A|---------------------------------------------------|
E|---------------------------------------------------|

E|---------------------------------------14----------|
B|-------11~---------11--7-----11~-11h12----11-------|
G|---8--------11h13----------------------------------|
D|--------------------------9-------------------13---|
A|---------------------------------------------------|
E|---------------------------------------------------|

[Primeira Parte]

D#m
  Eis me aqui senhor
    A#m
Buscando tua verdade e amor
    B9
Eu vim neste lugar
      C#9
Tua graça encontrar
     D#m
Por tua causa livre sou
   C#9
A minha vida a Ti eu dou
      G#m          D#m
Me coloco em tuas mãos
        F#
E ergo minha voz
        C#9
Pois liberto sou

[Refrão]

       F#
O teu nome bendirei
      C#9
E bem alto clamarei que
        D#m         B9  G#m
Eu sou teu, eu sou teu

[Segunda Parte]

     D#m
Por tudo que fizeste a mim
   A#m
Levanto minhas mãos a Ti
     B9         C#9
És o único, a quem adorarei
    D#m
Eu vou compartilhar o amor
     C#9
Ser tua luz por onde eu for
        G#m             D#m
Eu me prostro aos teus pés
        F#                  C#9
E ergo minhas mãos, pois liberto sou

[Refrão]

       F#
O teu nome bendirei
      C#9
E bem alto clamarei que
        D#m         B9
Eu sou teu, eu sou teu
       F#
O teu nome bendirei
      C#9
E bem alto clamarei que
        D#m         B9
Eu sou teu, eu sou teu

[Ponte]

          F#
Eis me aqui com os braços
                 D#m
Bem abertos criador, redentor
                B9
Tú és o eterno Deus
                G#m
Tu és o eterno Deus
          F#
Eis me aqui com os braços
                 D#m
Bem abertos criador, redentor
                B9
Tú és o eterno Deus
                G#m
Tu és o eterno Deus

( F#  C#  D#m  B )
( F#  C#  D#m  B )

[Refrão]

       F#
O teu nome bendirei
      C#9
E bem alto clamarei que
        D#m         B9
Eu sou teu, eu sou teu
       F#
O teu nome bendirei
      C#9
E bem alto clamarei que
        D#m         B9
Eu sou teu, eu sou teu

[Ponte]

          F#
Eis me aqui com os braços
                 D#m
Bem abertos criador, redentor
                B9
Tú és o eterno Deus
                G#m
Tu és o eterno Deus
          F#
Eis me aqui com os braços
                 D#m
Bem abertos criador, redentor
                B9
Tú és o eterno Deus
                G#m
Tu és o eterno Deus

[Final] F#  C#9  D#m  B9
        F#  C#9  D#m  B9

0 comentários

mostrar mais comentários

Conseguiu tocar?

25tocaram3ainda não

Grave um vídeo tocando Eu Sou Teu (Rooftops) e mande pra gente!

00:00 / 00:00
outros vídeos desta música
repetirqualidadeAutomático
Outro vídeos desta música
    00:00 / 00:00
    OK