Cifra Club

Dê Um Role

Gal Costa

Cifra: Principal (violão e guitarra)
Selo Cifra Club: esta cifra foi revisada para atender aos critérios oficiais da nossa Equipe de Qualidade.
tom: G
[Intro]  Em  D  C  G
         Em  D  C  G
         Em  D  C  G
         Em  D  C  G
         Em  D  C  G

[Solo]

Parte 1
E|-----------------|---------------------------|-----------------------|-------|
B|-----------------|---------------------------|-----------------------|-------|
G|-14b16r14--12----|-14b16--14b16r14--12-14----|-12----------12-----12-|---12--|
D|--------------14-|------------------------14-|----14-12-14-----------|-------|
A|-----------------|---------------------------|-----------------------|-------|
E|-----------------|---------------------------|-----------------------|-------|

Parte2
E|--------------------------|------------------------------|---------------------|-----------|
B|--------------------------|------------------------------|---------------------|-----------|
G|-14b16r14--12-14----14b16r|14--12-14------14b16r14p12----|-12-----------12---12|------12---|
D|-----------------14-------|----------14---------------14-|-----14-12-14--------|---14------|
A|--------------------------|------------------------------|---------------------|-----------|
E|--------------------------|------------------------------|---------------------|-----------|

Parte 3
E|---------12---------------|-----------------------------------|--------------------|
B|-------12--12-15/17----12-|-15-12-13--------------------------|--------------------|
G|--14b16-------------------|----------14-12-14b16r14p12--14-12-|--------------------|
D|--------------------------|---------------------------14------|-----------------12-|
A|--------------------------|-----------------------------------|--14-12-14-12-14----|
E|--------------------------|-----------------------------------|--------------------|

Riff 1 

E|-----------------------|
B|-------------8---------|
G|-------------7---------|  (2x)
D|-------------9---------|
A|-------------7--5-6-7--|
E|---9-10-9-0-----3-4-5--|


Riff 1                    
Não se assuste pessoa
Riff 1                    
Se eu lhe disser que a vida é boa
Riff 1                    
Não se assuste pessoa
Riff 1                    
Se eu lhe disser que a vida é boa

D                C      G           D7
Enquanto eles se batem, dê um rolê e você vai ouvir
C                G
Apenas quem já dizia

D D          D D
Eu não tenho nada
C C       C C         G
Antes de você ser eu sou

Refrão 3x:

    Em      D        C            G
Eu sou, eu sou, eu sou amor da cabeça aos pés  
                                               
Em                 D                C
E só tô beijando o rosto de quem me dá valor
          G
Pra quem vale mais no gosto do que cem mil réis
Outros vídeos desta música
    24.628 exibições
      • ½ Tom
      • A
      • Bb
      • B
      • C
      • Db
      • D
      • Eb
      • E
      • F
      • F#
      • G
      • Ab
    • Adicionar à lista

    Afinação da cifra

    Afinador online

      0 comentários

      Ver todos os comentários

      Entre para o Cifra Club PRO

      Tenha acesso a benefícios exclusivos no App e no Site

      • Chega de anúncios

      • Badges exclusivas

      • Mais recursos no app do Afinador

      • Atendimento Prioritário

      • Aumente seu limite de lista

      • Ajude a produzir mais conteúdo

      Cifra Club Pro

      Aproveite o Cifra Club com benefícios exclusivos e sem anúncios
      Cifra Club Pro
      Aproveite o Cifra Club com benefícios exclusivos e sem anúncios
      OK