Cifra Club

Ceremony

Galaxie 500

Cifra: Principal (violão e guitarra)
Selo Cifra Club: esta cifra foi revisada para atender aos critérios oficiais da nossa Equipe de Qualidade.
tom: A
[Intro Riff 1]
E|-----------------------------------------------------|
B|-----------------------------------------------------|
G|-----------------------------------------------------| x2
D|----7-7----7----7--7--7-------7-7-----7------7--7--7-|
A|5----5----5----5--5--5--5----------------------------|
E|--------------------------5----5-----5-----5--5--5--5|

Note: Riff above is how Dean Wareham plays it live. On the album version, however, when it moves to fretting 5 
on the E string, they also move to fretting 7 on the A string, not the D string. Thanks to user hoserton for
pointing this out in the comments.

[Intro Riff 2]
E|----------------------------------------------------------------------------------------|
B|-----3--3--3--3----3----3--3------------------------------------------------------------|
G|-----2--2--2--2----2----2--2--4b5--pb5-pb5br2-----2--2--2----2--2----2--2--2--2--2--2--2| x4
D|0----0--0--0--0----0----0--0----------------------2--2--2----2--2----2--2--2--2--2--2--2|
A|---------------------------------------------0----0--0--0----0--0----0--0--0--0--0--0--0|
E|----------------------------------------------------------------------------------------|

[Intro Riff 3]
E|------------------|
B|------------------|
G|-----2--1---------|
D|-------------2----| x8
A|0-----------------|
E|------------------|

[Verse] (Strum Softly): 
E|-----------------------------------------------------------------------------------------|
B|-----3--3--3--3----3----3--3--3----3--3--3-----------------------------------------------|
G|-----2--2--2--2----2----2--2--2----2--2--2---------2--2--2----2--2----2--2--2--2--2--2--2| x4
D|0----0--0--0--0----0----0--0--0----0--0--0---------2--2--2----2--2----2--2--2--2--2--2--2|
A|----------------------------------------------0----0--0--0----0--0----0--0--0--0--0--0--0|
E|-----------------------------------------------------------------------------------------|

[Chorus] (Same as verse, just strum harder/louder)
E|-----------------------------------------------------------------------------------------|
B|-----3--3--3--3----3----3--3--3----3--3--3-----------------------------------------------|
G|-----2--2--2--2----2----2--2--2----2--2--2---------2--2--2----2--2----2--2--2--2--2--2--2| x4
D|0----0--0--0--0----0----0--0--0----0--0--0---------2--2--2----2--2----2--2--2--2--2--2--2|
A|----------------------------------------------0----0--0--0----0--0----0--0--0--0--0--0--0|
E|-----------------------------------------------------------------------------------------|

[Solo]
E|--------------------------------------------------------------------------|
B|-----3--3--3--------------------------------------------------------------|
G|-----2--2--2------11---9---7------7---------2--2--2-----------------------|
D|0----0--0--0----0----0---0------0-----------2--2--2------11---9---7------7| x2
A|---------------------------------------0----0--0--0----0----0---0------0--|
E|--------------------------------------------------------------------------|

E|---------------------------------------------------------------------------|
B|---------------------------------------------------------------------------|
G|4h6----4h6----4--6/9--9--9----7----6----4h6----4h6----4h6----4h6----6----4-|
D|---------------------------------------------------------------------------| x2
A|---------------------------------------------------------------------------|
E|---------------------------------------------------------------------------|

E|------------------------------------------------------------------------------|
B|------------------------------------------------------------------------------|
G|4h6----4h6----4--6/11--11--11----9----7----4h6----4h6----4h6----4h6----6----4-|
D|------------------------------------------------------------------------------|
A|------------------------------------------------------------------------------|
E|------------------------------------------------------------------------------|
00:00 / 00:00
Outros vídeos desta música
Repetir
Outros vídeos desta música
17 exibições
    • ½ Tom
    • A
    • Bb
    • B
    • C
    • Db
    • D
    • Eb
    • E
    • F
    • F#
    • G
    • Ab
  • Adicionar à lista

Afinação da cifra

Afinador online

    0 comentários

    Ver todos os comentários

    Entre para oCifra Club PRO

    Tenha acesso a benefícios exclusivos no App e no Site

    • Chega de anúncios

    • Prioridade de compra em lançamentos

    • Mais recursos no app do Afinador

    • Atendimento Prioritário

    • Descontos nos produtos Cifra Club

    • Ajude a produzir mais conteúdo

    00:00 / 00:00

    Cifra Club Pro

    Aproveite o Cifra Club com benefícios exclusivos e sem anúncios
    Cifra Club Pro
    Aproveite o Cifra Club com benefícios exclusivos e sem anúncios
    OK