Cifra Club

Aprenda

Ignore List

Garage Fuzz

Cifra: Principal (violão e guitarra)
tom: G
TABBED BY: Caitu - Who Cares?! (www.whocareshc.cjb.net)
Música: Ignore List
Artista: Garage Fuzz (a melhor banda)
Album: Working on title
Tabbed by: Caitu - who cares?! (www.whocareshc.cjb.net)

A música ta em Bm... e a música toda eh baseada escala de Bm (Eólio)... se vc num sabe oq eh isso vai pesquisar... uma simples (ridícula
escala...). EU tirei de ouvido... então tem algumas partes meio zuadas... pra vc entender as partes e pegar os tempos certos, tem q ouvir a música...
vo coloca primeiro só a guita solo (fernando) e depois e guita base (wagner)
GUITARRA SOLO
INTRO - ABAFADO
E|-----------------------------------------------------------------------|
B|-----7---7--7---7--7---7--7---7--7---7--7---7--7---7--10---7-----------|
G|-------9------9------9------9------9------9------9-------9-------------|
D|-----------------------------------------------------------------------|
A|-----------------------------------------------------------------------|
E|-----------------------------------------------------------------------|

E|-----------------------------------------------------------------------|
B|-----7---7--7---7--7---7--8---7--7---7--7---7--7---7--7---7------------|
G|-------9------9------9------9------9------9------9------9--------------|
D|-----------------------------------------------------------------------|
A|-----------------------------------------------------------------------|
E|-----------------------------------------------------------------------|

VERSO
Guitarra #1
E|---------------9h10p9--------------------------------------------------|
B|----------------------10--7--------------------------------------------|
G|---11---9--------------------9---7-----7--9----10---9------------------|
D|---11---9----------------------------9---------10---9------------------|
A|-----------------------------------------------------------------------|
E|-----------------------------------------------------------------------|

REFRÃO - num consegui tirar direito... mas da pra enganar fazendo a mesma coisa da base só que na 2ª oitava... mas tenho certeza de que ele fica improvisando na escala
Guitarra #1
      G         E       B       B
E|-----------------------------------------------------------------------|
B|-----------------------------------------------------------------------|
G|--------------9--------------------------------------------------------|
D|----5---------9-------9-------9----------------------------------------|
A|----5---------7-------9-------9----------------------------------------|
E|----3-----------------7-------7----------------------------------------|

VERSO
E|-----------------------------------------------------------------------|
B|-----7---7--7---7--7---7--7---7--7---7--7---7--7---7--10---7-----------|
G|-------9------9------9------9------9------9------9-------9-------------|
D|-----------------------------------------------------------------------|
A|-----------------------------------------------------------------------|
E|-----------------------------------------------------------------------|

E|-----------------------------------------------------------------------|
B|-----7---7--7---7--7---7--8---7--7---7--7---7--7---7--7---7------------|
G|-------9------9------9------9------9------9------9------9--------------|
D|-----------------------------------------------------------------------|
A|-----------------------------------------------------------------------|
E|-----------------------------------------------------------------------|

REFRÃO - 2x - nesse pedacinho ele faz uns bends... numda pra detalha td... eh só ouvir q vc pega
E|----9------------------------------------------------------------------|
B|------10--7------------------------------------------------------------|
G|-------------9--7--9--7--7h9p7-----------------------------------------|
D|--------------------------------9--------------------------------------|
A|-----------------------------------------------------------------------|
E|-----------------------------------------------------------------------|

PONTE - poutz! num consegui tirar esse pedacinho...
E|-----------------------------------------------------------------------|
B|-----------------------------------------------------------------------|
G|-----------------------------------------------------------------------|
D|-----------------------------------------------------------------------|
A|-----------------------------------------------------------------------|
E|-----------------------------------------------------------------------|

VERSO - 4x
E|-----------------------------------------------------------------------|
B|-----------------------------------------------------------------------|
G|--------4----------4---------4----------4------------------------------|
D|-----------------------------------------------------------------------|
A|--2-2-------0---0-----------------0---0----0---------------------------|
E|----------------------3---3--------------------------------------------|

VERSO - 2x - nesse pedacinho ele faz uns bends... numda pra detalha td... eh só ouvir q vc pega
E|----9------------------------------------------------------------------|
B|------10--7------------------------------------------------------------|
G|-------------9--7--9--7--7h9p7-----------------------------------------|
D|--------------------------------9--------------------------------------|
A|-----------------------------------------------------------------------|
E|-----------------------------------------------------------------------|

PONTE - num consegui de novo.... só uma parte...
E|-----------------------------------------------------------------------|
B|---7-----7--7-----7--7------7---9------7-------------------------------|
G|------9--------9--------9-----------9----------------------------------|
D|-----------------------------------------------------------------------|
A|-----------------------------------------------------------------------|
E|-----------------------------------------------------------------------|

ABAFADO (4x) e depois duas vezes solto (fazendo uns bends)...
E|-----------------------------------------------------------------------|
B|----8-8--7-7-----------------------------------------------------------|
G|-------------9-9--7-7--------------------------------------------------|
D|----------------------9-9--7-7-------7---------------------------------|
A|--------------------------------9-9------------------------------------|
E|-----------------------------------------------------------------------|

E|-----------------------------------------------------------------------|
B|----8-8--7-7-----------------------------------------------------------|
G|-------------9-9--7-7-----------------7--------------------------------|
D|----------------------------7-7--9-9-----------------------------------|
A|-----------------------9-9---------------------------------------------|
E|-----------------------------------------------------------------------|

E|-----------------------------------------------------------------------|
B|--------7--------------------------------------------------------------|
G|---------------7-------------------------------------------------------|
D|----9------9-----------------------------------------------------------|
A|-----------------------------------------------------------------------|
E|-----------------------------------------------------------------------|

E|-----------------------------------------------------------------------|
B|-----------------------------------------------------------------------|
G|-----------------------------------------------------------------------|
D|-----------------------------------------------------------------------|
A|-----------------------------------------------------------------------|
E|-----------------------------------------------------------------------|

PONTE - abafado - várias vezes só com o baixo... ai entra td e ele solta...
E|-----------------------------------------------------------------------|
B|-----------------------------------------------------------------------|
G|--7-----7--------7-----7---------7-----7--------7-------7--------------|
D|-----9-----9-9------9-----9-9-------9-----9-9------9-9-----9-----------|
A|-----------------------------------------------------------------------|
E|-----------------------------------------------------------------------|

REFRÃO - ele faz a mesma coisa q antes só q umas casas abaixo

E|-----------------------------------------------------------------------|
B|-----7---7--7---7--7---7--7---7--7---7--7---7--7---7--10---7-----------|
G|-------9------9------9------9------9------9------9-------9-------------|
D|-----------------------------------------------------------------------|
A|-----------------------------------------------------------------------|
E|-----------------------------------------------------------------------|

E|-----------------------------------------------------------------------|
B|-----7---7--7---7--7---7--8---7--7---7--7---7--7---7--7---7------------|
G|-------9------9------9------9------9------9------9------9--------------|
D|-----------------------------------------------------------------------|
A|-----------------------------------------------------------------------|
E|-----------------------------------------------------------------------|

E|----9------------------------------------------------------------------|
B|------10--7------------------------------------------------------------|
G|-------------9--7--9--7------------------------------------------------|
D|--------------------------9--------------------------------------------|
A|-----------------------------------------------------------------------|
E|-----------------------------------------------------------------------|

GUITARRA BASE
bom, na verdade só tem umas três variações essa música, então num vo coloca 50 vezes a mesma coisa
distorcida, só o B na corda G que eh solto, o resto eh abafado - 4 vezes
INTRO
E-----------------------------------------------------------------------
B-----------------------------------------------------------------------
G--------4-4-------4-4-------4-4-------4-4------------------------------
D-----------------------------------------------------------------------
A--2-2--------0-0-----------------0-0-----------------------------------
E-----------------------3-3---------------------------------------------

REFRÃO
G       E(GRAVE)        B

VERSO
E-----------------------------------------------------------------------
B-----------------------------------------------------------------------
G--------4----------4---------4----------4------------------------------
D-----------------------------------------------------------------------
A--2-2-------0---0-----------------0---0----0---------------------------
E----------------------3---3--------------------------------------------
a musica eh mais ou menos isso... mas ta sempre baseada nos 3 acordes: B        G       E... então se vc num entende algo
tenta tira q num eh difícil...  
Compositor não encontrado.
4.655 exibições
    • ½ Tom
    • A
    • Bb
    • B
    • C
    • Db
    • D
    • Eb
    • E
    • F
    • F#
    • G
    • Ab
  • Adicionar à lista

    0 comentários

    Ver todos os comentários

    Conseguiu tocar?

    0 Tocaram 1 Ainda não

    Grave um vídeo tocando Ignore List e nos envie!

    00:00 / 00:00
    Outros vídeos desta música
    Repetir Qualidade Automático
    Outros vídeos desta música
    00:00 / 00:00
    Automático

    Cifra Club Pro

    Aproveite o Cifra Club com benefícios exclusivos e sem anúncios
    Cifra Club Pro
    Aproveite o Cifra Club com benefícios exclusivos e sem anúncios
    OK