Cifra Club

I Think I'm Paranoid

Garbage

Cifra: Principal (violão e guitarra)
tom: A
INTRO/VERSO 1 [x6]
|---------------------------------|
|----13----11------------------11-|
|-13----13-----11-----13----11----|
|------------------13----13-------|
|---------------------------------|
|---------------------------------|

You can look but you can't touch
I don't think I like you much
Heaven knows what a girl can do
Heaven knows what you've got to prove


Pre-Refrão [x4]
|-------------------------|
|-------------------------|
|-------------------6---6-|
|-6---6-4---4-2---2-6---4-|
|-6---6-4---4-2---2-4---4-|
|-4---4-2---2-0---0-------|

I think I'm paranoid and complicated
I think I'm paranoid, manipulate it

[solinho antes do refrão]
|----------------------------|
|-------12-------12-------12-|
|----15-------15-------15----|
|-14-------14-------14-------|
|----------------------------|
|----------------------------|

Refrão [x4]
|------------|
|------------|
|----------8-|
|-9--4--9--8-|
|-9--4--9--6-|
|-7--2--7----|

Bend me break me
Anyway you need me
All I want is you
Bend me break me
Breaking down is easy
All I want is you

[6x]
|---------------------------------|
|----13----11------------------11-|
|-13----13-----11-----13----11----|
|------------------13----13-------|
|---------------------------------|
|---------------------------------|

I fall down just to give you a thrill
Prop me up with another pill
If I should fail, if I should fold
I nailed my faith to the sticking pole

Pre-Refrão [x4]
|-------------------------|
|-------------------------|
|-------------------6---6-|
|-6---6-4---4-2---2-6---4-|
|-6---6-4---4-2---2-4---4-|
|-4---4-2---2-0---0-------|

I think I'm paranoid, manipulate it
I think I'm paranoid, too complicated

Refrão [x4]
|------------|
|------------|
|----------8-|
|-9--4--9--8-|
|-9--4--9--6-|
|-7--2--7----|

Bend me break me
Anyway you need me
All I want is you
Bend me break me
Breaking down is easy
All I want is you

|-----------------------|
|-9-11b12r11-11b12r11p9-|
|-----------------------|
|-----------------------|
|-----------------------|
|-----------------------|

INTERLUDE
|-------------|
|-------------|
|----------6--|
|-3--3--3--6--|
|-3--3--3--4--|
|-1--1--1-----|

I think I'm paranoid
I think I'm paranoid

[Solinho]
|-------------------------|
|-------12-------12-------|
|----15-------15-------15-|
|-14-------14-------14----|
|-------------------------|
|-------------------------|

Refrão [x4]
|------------|
|------------|
|----------8-|
|-9--4--9--8-|
|-9--4--9--6-|
|-7--2--7----|

Bend me break me
Anyway you need me
All I want is you
Bend me break me
Breaking down is easy
All I want is you

|-----------------------|
|-9-11b12r11-11b12r11p9-|
|-----------------------|
|-----------------------|
|-----------------------|
|-----------------------|

INTERLUDE
|-------------|
|-------------|
|----------6--|
|-3--3--3--6--|
|-3--3--3--4--|
|-1--1--1-----|

Steal me, deal me, anyway you heal me
Maim me, tame me, you can never change me
Love me, like me, come ahead and fight me
Please me, tease me, go ahead and leave me

|---------------------------------|
|----13----11------------------11-|
|-13----13-----11-----13----11----|
|------------------13----13-------|
|---------------------------------|
|---------------------------------|
Bend me break me
Anyway you need me
As long as I want you baby it's alright
Bend me break me
Anyway you need me
As long as I want you baby it's alright
00:00 / 00:00
Outros vídeos desta música
Repetir
Outros vídeos desta música
Composição de Garbage
Colaboração e revisão:
  • natália
11.640 exibições
    • ½ Tom
    • A
    • Bb
    • B
    • C
    • Db
    • D
    • Eb
    • E
    • F
    • F#
    • G
    • Ab
  • Adicionar à lista

    0 comentários

    Ver todos os comentários

    Entre para oCifra Club PRO

    Tenha acesso a benefícios exclusivos no App e no Site

    • Chega de anúncios

    • Prioridade de compra em lançamentos

    • Mais recursos no app do Afinador

    • Atendimento Prioritário

    • Descontos nos produtos Cifra Club

    • Ajude a produzir mais conteúdo

    00:00 / 00:00

    Cifra Club Pro

    Aproveite o Cifra Club com benefícios exclusivos e sem anúncios
    Cifra Club Pro
    Aproveite o Cifra Club com benefícios exclusivos e sem anúncios
    OK