Cifra Club

Mad World 0

Gary Jules

Cifra: Principal (violão e guitarra)
tom: Bb
Tabbed by: soupey george
Email: *
Tuning: standard tuning EADGBe

e|--------------------------------------------------1---------1------------|
B|-------------1-----------------------------------------------------------|
G|-------1----------0--1-----------0---------------------------------------|
D|---------------------------3----------1p0--------------------------------|
A|---------------------------------------------1--------1------------------|
E|-------------------------------------------------------------------------|

e|-----------------------------------------1------------1------------------|
B|-------1-----------------------------------------------------------------|
G|---1------0---1--------0----1----3------------3--------------------------|
D|------------------3------------------------------------------------------|
A|-------------------------------------------------------------------------|
E|-------------------------------------------------------------------------|

e|-------------------------------------------------------------------------|
B|---------------------------------------1---1---1-------------------------|
G|-----------------1----1-----------------------------1--------------------|
D|----3-----3----------------3-----3---------------------------------------|
A|-------------------------------------------------------------------------|
E|-------------------------------------------------------------------------|
   All around me are familiar faces
   Children waiting for the day they feel good


e|-------------------------------------------------------------------------|
B|----3------3-----3-----0-----3-----3-----3----1-----0--------------------|
G|----------------------------------------------------------3--------------|
D|-------------------------------------------------------------------------|
A|-------------------------------------------------------------------------|
E|-------------------------------------------------------------------------|
  Worn out places, worn out faces
  Happy Birthday, happy Birthday


e|-------------------------------------------------------------------------|
B|------------------------------------------1---1----1---------------------|
G|------------------1----1---------------------------------1---------------|
D|-----3-----3------------------3-----3------------------------------------|
A|-------------------------------------------------------------------------|
E|-------------------------------------------------------------------------|
  Bright and early for their daily races
  And I feel the way that ever child should

e|-------------------------------------------------------------------------|
B|-------------------------------------------------------------------------|
G|----3----3----3-----0----3----3-----3------1-----0-----------------------|
D|----------------------------------------------------------3--------------|
A|-------------------------------------------------------------------------|
E|-------------------------------------------------------------------------|
  Going nowhere, going nowhere
  Sit and listen, sit and listen


e|-------------------------------------------------------------------------|
B|-----------------------------------------1----1-----1--------------------|
G|------------------1----1-----------------------------------1-------------|
D|----3------3-----------------3----3--------------------------------------|
A|-------------------------------------------------------------------------|
E|-------------------------------------------------------------------------|
  The tears are filling up their glasses
  Went to school and I was very nervous


e|-------------------------------------------------------------------------|
B|-------------------------------------------------------------------------|
G|---3-----3-----3-----0-----3------3------3-----1------0------------------|
D|-------------------------------------------------------------3-----------|
A|-------------------------------------------------------------------------|
E|-------------------------------------------------------------------------|
  No expression, no expression
  No-one knew me, no-one knew me


e|-------------------------------------------------------------------------|
B|-------------------1------1--------------------1-----1-----1-------------|
G|-----3------3--------------------3------3------------------------1-------|
D|-------------------------------------------------------------------------|
A|-------------------------------------------------------------------------|
E|-------------------------------------------------------------------------|
  Hide my head, I want to drown my sorrow
  Hello teacher, tell me what's my lesson


e|-------------------------------------------------------------------------|
B|-------------------------------------------------------------------------|
G|----3------3------3------0-----3-----3-----3-----1-----0-----------------|
D|--------------------------------------------------------------3----------|
A|-------------------------------------------------------------------------|
E|-------------------------------------------------------------------------|
  No tomorrow, no tomorrow
  Look right through me, look right through me


CHORUS:

e|-------------------------------------------------------------------------|
B|--------------------------1----1----3-------------------3-----3----------|
G|----------------1----1-------------------3-----3----3-------------3------|
D|------3-----3------------------------------------------------------------|
A|-------------------------------------------------------------------------|
E|-------------------------------------------------------------------------|
  And I find it kinda funny, I find it kinda sad

e|-------------------------------------------------------------------------|
B|--------------------------1---1---3-----------------3---3----------------|
G|----------------1----1----------------3----3----3-----------3---3--------|
D|------3----3--------------------------------------------------------3----|
A|-------------------------------------------------------------------------|
E|-------------------------------------------------------------------------|
  The dreams in which I'm dying are the best I've ever had

e|-------------------------------------------------------------------------|
B|-----------------------1----1----3------------------3---3----------------|
G|-------------1----1-------------------3----3----3------------3---3-------|
D|---3----3-------------------------------------------------------------3--|
A|-------------------------------------------------------------------------|
E|-------------------------------------------------------------------------|
  I find it hard to tell you, I find it hard to take

e|-------------------------------------------------------------------------|
B|----------------------1---1---3----------------3---3---------------------|
G|-------------1---1-----------------3---3---3-----------3---3-------------|
D|---3----3----------------------------------------------------------------|
A|-------------------------------------------------------------------------|
E|-------------------------------------------------------------------------|
  When people run in circles, it's a very, very

e|-------------------------------------------------1------------1------------|
B|--------1------------------------------------------------------------------|
G|---1---------0----1---------0----------------------------------------------|
D|-----------------------3---------1p0---------------------------------------|
A|-----------------------------------------1-------------1-------------------|
E|---------------------------------------------------------------------------|
  Mad world...

e|---------------------------------------------1-----------1---------------|
B|--------1----------------------------------------------------------------|
G|---1---------0----1----------0----1----3-----------3---------------------|
D|-----------------------3-------------------------------------------------|
A|-------------------------------------------------------------------------|
E|-------------------------------------------------------------------------|
  Mad world... (repeat)

| /  slide up
| \  slide down
| h  hammer-on
| p  pull-off
| ~  vibrato
| +  harmonic
| x  Mute note
===============================================================================
00:00 / 00:00
Outros vídeos desta música
Repetir
Outros vídeos desta música
Compositor não encontrado.
3.034 exibições
    • ½ Tom
    • A
    • Bb
    • B
    • C
    • Db
    • D
    • Eb
    • E
    • F
    • F#
    • G
    • Ab
  • Adicionar à lista

    0 comentários

    Ver todos os comentários

    Entre para oCifra Club PRO

    Tenha acesso a benefícios exclusivos no App e no Site

    • Chega de anúncios

    • Prioridade de compra em lançamentos

    • Mais recursos no app do Afinador

    • Atendimento Prioritário

    • Descontos nos produtos Cifra Club

    • Ajude a produzir mais conteúdo

    00:00 / 00:00

    Cifra Club Pro

    Aproveite o Cifra Club com benefícios exclusivos e sem anúncios
    Cifra Club Pro
    Aproveite o Cifra Club com benefícios exclusivos e sem anúncios
    OK