Cifra Club

Still Got The Blues

Gary Moore

Cifra: Principal
exibições 179.645
Tom: C
Introdução: Dm7  F  C  F7M  Dm  E  Am

(Base)

   Dm7         F
E|-------1-----------1----------------------|
B|-----1---1-------1---1--------------------|
G|---2-------2---2-------2------------------|
D|-0-----------3----------------------------|
A|------------------------------------------|
E|------------------------------------------|

   C           F7M
E|-------0-----------0----------------------|
B|-----1---1-------1---1--------------------|
G|---0-------0---2-------2------------------|
D|-------------3----------------------------|
A|-3----------------------------------------|
E|------------------------------------------|

   Dm          E
E|-------1-----------0----------------------|
B|-----3---3-------0---0--------------------|
G|---2-------2---1-------1------------------|
D|-0----------------------------------------|
A|------------------------------------------|
E|-------------0----------------------------|

   Am
E|------------------------------------------|
B|-------1----------------------------------|
G|-----2---2--------------------------------|
D|---2-------2------------------------------|
A|-0----------------------------------------|
E|------------------------------------------|

(Solo)

E|-------12-12b13~---12b13-12-------------------------|
B|----15----------------------15~\--------------------|
G|-14-------------------------------------------------|
D|----------------------------------------------------|
A|----------------------------------------------------|
E|----------------------------------------------------|

E|----------------------------------------------------|
B|-13-15-15b17~---15b17r15-13~\-----------------------|
G|----------------------------------------------------|
D|----------------------------------------------------|
A|----------------------------------------------------|
E|----------------------------------------------------|

E|----------------------------------------------------|
B|----12-13-13b15~---13b15r13-12~\-------10-----------|
G|-14----------------------------------x----12--12b14~|
D|-----------------------------------x----------------|
A|----------------------------------------------------|
E|----------------------------------------------------|


Primeira Parte:

Dm7             F
    Used to be so easy
C             F7M
  To give my heart away
Dm                      E
   But I found out the hard way
            Am  Am/B           Am/C
There's a price      you have to pay

Dm7               F
    I found out that love
C        F7M
  Was no     friend of mine
Dm
   I should have known
E
  Time after time


Primeiro Refrão:

Am     Em7
   So long
        Am       D7(9)
It was so long ago
           F7(9)         E7(9+)  Am
But I've still got the blues for    you


Segunda Parte:

   Dm7         F
E|-------1-----------1----------------------|
B|-----1---1-------1---1--------------------|
G|---2-------2---2-------2------------------|
D|-0-----------3----------------------------|
A|------------------------------------------|
E|------------------------------------------|

   C           F7M
E|-------0-----------0----------------------|
B|-----1---1-------1---1--------------------|
G|---0-------0---2-------2------------------|
D|-------------3----------------------------|
A|-3----------------------------------------|
E|------------------------------------------|

   Dm          E
E|-------1----------------------------------|
B|-----3---3-------0---0--------------------|
G|---2-------2---1---1---1------------------|
D|-0----------------------------------------|
A|------------------------------------------|
E|-------------0----------------------------|

   Am    Am/B  Am/C
E|------------------------------------------|
B|-----1-----1-1----------------------------|
G|-----2-----2-2----------------------------|
D|---2-----2---2----------------------------|
A|-0-----2-----3----------------------------|
E|------------------------------------------|

Dm7             F      (Riff 1)
    Used to be so easy
C             F7M       (Riff 2)
  To fall in love again
Dm                      E       (Riff 3)
   But I found out the hard way
        Am  Am/B             Am7/C  (Riff 4)
It's a road      that leads to pain

   Dm7         F
E|-------1-----------1----------------------|
B|-----1---1-------1---1--------------------|
G|---2-------2---2-------2------------------|
D|-0-----------3----------------------------|
A|------------------------------------------|
E|------------------------------------------|

   C           F7M
E|-------0-----------0----------------------|
B|-----1---1-------1---1--------------------|
G|---0-------0---2-------2------------------|
D|-------------3----------------------------|
A|-3----------------------------------------|
E|------------------------------------------|

   Dm
E|-------1-----------1----------------------|
B|-----3---3-------3---3--------------------|
G|---2-------2---2-------2------------------|
D|-0-----------0----------------------------|
A|------------------------------------------|
E|------------------------------------------|

   E
   P.M.  .  .  .  .  .  .  .  .  .  .
E|------------------------------------------|
B|------------------------------------------|
G|------------------------------------------|
D|------------------------------------------|
A|-2--2--2--2--2--2--2--2--2--2--2--2-------|
E|-0--0--0--0--0--0--0--0--0--0--0--0-------|

Dm7               F
    I found that love
C            F7M            (Riff 5)
  Was more than just a game
Dm                       (Riff 6)
   You're playin' to win
     E                     (Riff 7)
But you lose just the same


Segundo Refrão:

Am     Em7
   So long
        Am       D7(9)
It was so long ago
           F7(9)         E7(9+)   Am  (Riff 8)
But I've still got the blues for you


Ponte:

Bm          E7(9)
   So many years
            C    Bm   Am  (Riff 9)
Since I've seen your face
Bm             E7(9)
   Here in my heart
           F7M  Em7  D7(9)
There's an em_pty  space
                   Am
Where you used to be


Solo: Dm7  F  C  F7M  Dm  E  Am  Am/B  Am/C
      Dm7  F  C  F7M  Dm  E

(Parte 1)

E|-------12-12b13~---12b13-12-------------------------|
B|----15----------------------15~\--------------------|
G|-14-------------------------------------------------|
D|----------------------------------------------------|
A|----------------------------------------------------|
E|----------------------------------------------------|

E|----------------------------------------------------|
B|----13-15-15b17~---15b17r15-13~\--------------------|
G|-12-------------------------------------------------|
D|----------------------------------------------------|
A|----------------------------------------------------|
E|----------------------------------------------------|

E|----------------------------------------------------|
B|----12-13-13b15~---13b15r13-12~\---10-----10--12----|
G|-14-----------------------------------12b-----------|
D|----------------------------------------------------|
A|----------------------------------------------------|
E|----------------------------------------------------|

E|----------------------------------------------------|
B|-12b13\---------------------------------------------|
G|----------------------------------------------------|
D|----------------------------------------------------|
A|----------------------------------------------------|
E|----------------------------------------------------|

(Parte 2)

E|-------12-12b13~---15-------------------------------|
B|----15-----------------15b17--15~\------------------|
G|-14-------------------------------------------------|
D|----------------------------------------------------|
A|----------------------------------------------------|
E|----------------------------------------------------|

E|------------------13--------------------------------|
B|----13-15-15b17------15b17-15-13~\------------------|
G|-12-------------------------------------------------|
D|----------------------------------------------------|
A|----------------------------------------------------|
E|----------------------------------------------------|

E|----------------------------------------------------|
B|----12-13-13b15----13b15r13p10--13b15--13b15~-------|
G|-14-------------------------------------------------|
D|----------------------------------------------------|
A|----------------------------------------------------|
E|----------------------------------------------------|

E|-10------------20b22----20b~------------------------|
B|----13-10\------------------------------------------|
G|----------------------------------------------------|
D|----------------------------------------------------|
A|----------------------------------------------------|
E|----------------------------------------------------|

(Parte 3)

E|-17----------------------------------------------17-|
B|----20-17----17-------------------------------17----|
G|----------19----19b21r19p17----19----17-19b21-------|
D|----------------------------19----19----------------|
A|----------------------------------------------------|
E|----------------------------------------------------|

E|----------------------------------------------------|
B|-17-20p17----17-------------------------------------|
G|----------19----19b21r19p17----19----17-19-19b21~~--|
D|----------------------------19----19----------------|
A|----------------------------------------------------|
E|----------------------------------------------------|


Terceiro Refrão:

Am     Em7
   So long
        Am       D7(9)
It was so long ago
           F7(9)         E7(9+)  Am     E5
But I've still got the blues    for you

            Am            Em7
Though the days come and go
         Am            D7(9)
There is one thing I know
       F7(9)         E7(9+)
I've still got the blues for you


Final: Dm7  F  C  F7M  Dm  E  Am  Am7/B  Am7/C
       Dm7  F  C  F7M  Dm  E  Am

E|-------12-12b13~---12b13-12-------------------------|
B|----15----------------------15~---------------------|
G|-14-------------------------------------------------|
D|----------------------------------------------------|
A|----------------------------------------------------|
E|----------------------------------------------------|

E|----------------------------------------------------|
B|----13-15-15b17~---15b17r15-13~\--------------------|
G|-12-------------------------------------------------|
D|----------------------------------------------------|
A|----------------------------------------------------|
E|----------------------------------------------------|

E|----------------------------------------------------|
B|----12-13-13b15~---13b15r13-12~\-------10--12--12b13|
G|-14----------------------------------x--------------|
D|-----------------------------------x----------------|
A|----------------------------------------------------|
E|----------------------------------------------------|

E|----------------------------------------------------|
B|-13b15~~--15b17~~\----------------------------------|
G|----------------------------------------------------|
D|----------------------------------------------------|
A|----------------------------------------------------|
E|----------------------------------------------------|

E|-------12-12b13r12----------------------------------|
B|----15-------------15~------------------------------|
G|-14-------------------------------------------------|
D|----------------------------------------------------|
A|----------------------------------------------------|
E|----------------------------------------------------|

E|------------------13--------------------------------|
B|----13-15-15b17~-----15b17-15-13~\------------------|
G|-12-------------------------------------------------|
D|----------------------------------------------------|
A|----------------------------------------------------|
E|----------------------------------------------------|

E|----------------------------------------------------|
B|----12-13-13b15~---13b15r13-12~\-------10-----------|
G|-14----------------------------------x----12--12b14~|
D|-----------------------------------x----------------|
A|----------------------------------------------------|
E|----------------------------------------------------|


Riffs:

(Riff 1)

E|----------------------------------------------------|
B|-----8---8~-----------------------------------------|
G|-7/9---x--------------------------------------------|
D|----------------------------------------------------|
A|----------------------------------------------------|
E|----------------------------------------------------|

(Riff 2)

E|-5--------------------------------------------------|
B|---8------------------------------------------------|
G|-----7b9r7p5----------------------------------------|
D|-------------7--------------------------------------|
A|----------------------------------------------------|
E|----------------------------------------------------|

(Riff 3)

E|----------------------------------------------------|
B|----------------------------------------------------|
G|-7b9-7-5b-------------------------------------------|
D|----------------------------------------------------|
A|----------------------------------------------------|
E|----------------------------------------------------|

(Riff 4)

E|----------------------------------------------------|
B|-8b10-----------------------------------------------|
G|-------7b9r7-5--------------------------------------|
D|---------------7~-----------------------------------|
A|----------------------------------------------------|
E|----------------------------------------------------|

(Riff 5)

E|-------8--8b10~-------------------------------------|
B|-8/10-----------------------------------------------|
G|----------------------------------------------------|
D|----------------------------------------------------|
A|----------------------------------------------------|
E|----------------------------------------------------|

(Riff 6)

E|-10-8-----8-----------------------------------------|
B|------10--------------------------------------------|
G|----------------------------------------------------|
D|----------------------------------------------------|
A|----------------------------------------------------|
E|----------------------------------------------------|

(Riff 7)

E|----------------------------------------------------|
B|-15b17~~--------------------------------------------|
G|----------------------------------------------------|
D|----------------------------------------------------|
A|----------------------------------------------------|
E|----------------------------------------------------|

(Riff 8)

E|----------------------------------------------------|
B|----------------------------------------------------|
G|-7b9r7p5--------------------------------------------|
D|---------7-7~---------------------------------------|
A|----------------------------------------------------|
E|----------------------------------------------------|

(Riff 9)

E|----------------------------------------------------|
B|-13b15r13-10--13b15r13b15~~-------------------------|
G|----------------------------------------------------|
D|----------------------------------------------------|
A|----------------------------------------------------|
E|----------------------------------------------------|
Acordes para:
    Composição: Gary MooreColaboração e revisão:
    • Vinícius Dias
    • Charles Silva
    • Tania Mangolin

    0 comentários

      mostrar mais comentários

      Conseguiu tocar?

      16tocaram0ainda não

      Grave um vídeo tocando Still Got The Blues e mande pra gente!

      00:00 / 00:00
      outros vídeos desta música
      repetirqualidadeautomática
      Outro vídeos desta música
        00:00 / 00:00
        automática
        Capítulos
        • Tocando a música
        • Dicas iniciais
        • Acordes da Introdução
        • Tocando Introdução
        • Ensinando Riff da Introdução
        • Ensinando Base da Introdução
        • Acordes da Primeira Parte
        • Acordes do Primeiro Refrão
        • Tocando Primeira Parte e Refrão
        • Ensinando Refrão
        • Acordes da Segunda Parte
        • Tocando Segunda Parte
        • Ensinando Base da Segunda Parte
        • Ensinando Riff 1
        • Ensinando Riff 2
        • Ensinando Riff 3
        • Ensinando Riff 4
        • Ensinando Riff 5
        • Ensinando Riff 6
        • Ensinando Riff 7
        • Acordes da Ponte
        • Tocando Segundo Refrão - Ponte
        • Ensinando Ponte
        • Ensinando Riff 8
        • Ensinando Riff 9
        • Dicas do Solo
        • Tocando Solo
        • Ensinando Solo
        • Tocando Terceiro Refrão
        • Ensinando Riff Final
        • Ficha técnica / Erros de gravação
        OK