Cifra Club

Carmen

Georges Bizet

Cifra: Principal (violão e guitarra)
Selo Cifra Club: esta cifra foi revisada para atender aos critérios oficiais da nossa Equipe de Qualidade.
tom: F
E|-8-10-8-5--5-5---5-6-5-|-6---8-5--1---3---|-3-|-10-8-6-5-3-5-6-5-|-----------12-|
B|---------------8-------|---8--------3---1-|---|------------------| 5-10--9--12---|
G|-----------------------|------------------|---|------------------|--------------|
D|-----------------------|------------------|---|------------------|--------------|
A|-----------------------|------------------|---|------------------|--------------|
E|-----------------------|------------------|---|------------------|--------------|

E|-10---------------8---|-------8---------------|------------------|--------------|
B|----8-10-11--11-8--10-|-11-10---10-8-6--------|------------------|--------------|
G|----------------------|-----------------------|------------------|--------------|
D|----------------------|-----------------------|------------------|--------------|
A|----------------------|-----------------------|------------------|--------------|
E|----------------------|-----------------------|------------------|--------------|
Outros vídeos desta música
    87 exibições
      • ½ Tom
      • A
      • Bb
      • B
      • C
      • Db
      • D
      • Eb
      • E
      • F
      • F#
      • G
      • Ab
    • Adicionar à lista

    Afinação da cifra

    Afinador online

      0 comentários

      Ver todos os comentários

      Conseguiu tocar?

      0Tocaram0Ainda não

      Grave um vídeo tocando Carmen e nos envie!

      Toque também

      1. Imagem do artista Jean SibeliusConserva a Paz,ó Minha Alma Jean Sibelius
      2. Imagem do artista Giacomo PucciniNessun Dorma Giacomo Puccini
      3. Imagem do artista Giuseppe VerdiCaro Mio Ben Giuseppe Verdi
      4. Imagem do artista Gioacchino RossiniThieving Magpie Gioacchino Rossini

      Entre para o Cifra Club PRO

      Tenha acesso a benefícios exclusivos no App e no Site

      • Chega de anúncios

      • Badges exclusivas

      • Mais recursos no app do Afinador

      • Atendimento Prioritário

      • Aumente seu limite de lista

      • Ajude a produzir mais conteúdo

      Cifra Club Pro

      Aproveite o Cifra Club com benefícios exclusivos e sem anúncios
      Cifra Club Pro
      Aproveite o Cifra Club com benefícios exclusivos e sem anúncios
      OK