Cifra Club

Bicho de Sete Cabeças

Geraldo Azevedo

Cifra: Principal
exibições 243.397
Tom: D
Intro: 2x Bm Em7 A D5 G7M G#º (Solo)

Bm                          Em7
Não dá pé, não tem pé nem cabeça
                     A
Não tem ninguém que mereça
                     D
Não tem coração que esqueça

Não tem jeito mesmo
    G7M
Não tem dó no peito
G#º
Não tem nem talvez ter feito
        F#            A9-
O que você me fez, desapareça
C#º      Bbº
Cresça e desapareça...
Bm                             Em7
Não tem dó no peito, não tem jeito

                         A
Não tem coração que esqueça

                        D
Não tem ninguém que mereça

                      G7M
Não te pé, não tem cabeça

                 G#º
Não dá pé não é direito
                       A#º               
Não foi nada, eu não fiz nada disso e você fez um
           C#º
Bicho de sete cabeças

Bbº    C#º   F#º  
Biiicho de sete cabeças


E|---------------------------------------|
A|---------------------------------------|
D|---------------------------------------|
G|--------------7-6----------------------|
B|--------8-7-5--------------------------|
E|--9-7-6--------------------------------|

E|---------------------------------------|
A|---------------------------------------|
D|---------------------------------------|
G|------------------10-9-----------------|
B|----------11-10-8----------------------|
E|--12-10-9------------------------------|
Acordes para:
    Composição: Geraldo AzevedoColaboração e revisão:
    • Dionizio Júnior
    • Carlos Júnior
    • Lennon Munduri

    0 comentários

      mostrar mais comentários

      Conseguiu tocar?

      9tocaram3ainda não

      Grave um vídeo tocando Bicho de Sete Cabeças e mande pra gente!

      00:00 / 00:00
      outros vídeos desta música
      repetirqualidadeautomática
      Outro vídeos desta música
        00:00 / 00:00
        automática
        OK