Cifra Club

Ghuleh / Zombie Queen

Ghost

Cifra: Principal (violão e guitarra)
tom: Bb (forma dos acordes no tom de C) Afinação: D G C F A D
Intro (2x)

D|--------------------------------------------------------------------------------------|
A|--7--8----8----8------7--8----8----8------7----3----5----5--------1----7----7----7----|
F|--7--9--9----9---9----7--9--9----9---9----7----4----5--5----5-----2----7--7----7---7--|
C|--7--9----------------7--9----------------7----4----5----5--------2----7----7----7----|
G|-----7----7----7---------7----7----7-----------2--------------------------------------|
D|--------------------------------------------------------------------------------------|

Repete a Intro (2x) durante toda a estrofe:

Putrefaction
A scent that cursed be
Under coat of dust

From the darkness
Rise as succubus
From the earthen rust


Solo de Teclado

    G              Dm                G              Dm                         G              Dm

D|--3----3---------1-0-1---1---------3----3---------1-0-------0h1p0------------3----3---------1-0-1------|
A|--3---------3----------3---3---3---3---------3--------3------------3---------3---------3---------------|
F|--0-------0---0--------------------0-------0---0---------2------------2------0-------0---0-------------|
C|--0--------------0-0-0-------0-----0--------------0-0-0-----0------------0---0--------------0-0-0------|
G|--2--------------------------------2-----------------------------------------2-------------------------|
D|--3--3---3-------------------------3--3---3----------------------------------3--3---3------------------|


    C          G                     C  G

D|--0---------------------------------------------------|
A|-----3--1--1-0----------------------------------------|
F|------------------0h2--0------------------------------|
C|-------------------------3-2-0-----2--0---------------|
G|--3--3--3--3-------------------3---3------------------|
D|-------------3------------------------3---------------|


Intro (2x)

Haresis dea
Once a majesty
Now exposing bone

From the darkness
Rise as succubus
And usurp the throne



Solo de Teclado

    G              Dm                G              Dm                         G              Dm

D|--3----3---------1-0-1---1---------3----3---------1-0-------0h1p0------------3----3---------1-0-1------|
A|--3---------3----------3---3---3---3---------3--------3------------3---------3---------3---------------|
F|--0-------0---0--------------------0-------0---0---------2------------2------0-------0---0-------------|
C|--0--------------0-0-0-------0-----0--------------0-0-0-----0------------0---0--------------0-0-0------|
G|--2--------------------------------2-----------------------------------------2-------------------------|
D|--3--3---3-------------------------3--3---3----------------------------------3--3---3------------------|


    C          G                     C  G

D|--0---------------------------------------------------|
A|-----3--1--1-0----------------------------------------|
F|------------------0h2--0------------------------------|
C|-------------------------3-2-0-----2--0---------------|
G|--3--3--3--3-------------------3---3------------------|
D|-------------3------------------------3---------------|


Passagem                            
                                 H
D|-------------------------------12----|
A|-------------------------------12----|
F|--------------0h2--0-----------12----|
C|-------0--3----------3--2------------|
G|--0--3-------------------------------|
D|-------------------------------------|


Permanece em Em e logo repete 4X este Riff até a entrada do vocal e continua repetindo até aparecer os acordes

Riff

D|------------------------------------------|
A|------------------------------------------|
F|------------------------------------------|
C|------------------------------------------|
G|----------7-7-----------------------------|
D|-0-0--7-7-----7-7--0-0--------------------|

Riff                  C5 G5
The moon is full and shines
  F#5      F5    E5
An evil blinding light

Riff                   C5  G5
Under a monolith, her likeness
 F#5  F5  E5
Marble white


Passagem

     G         F#        G         F#        G         F#       C5  C#5     D5      Eb5
D|--------------------------------------------------------------------------------------------|
A|--------------------------------------------------------------------------------------------|
F|--------------------------------------------------------------------------------------------|
C|--5-5--4-4------------5-5--4-4------------5-5--4-4------------------------------------------|
G|------------5-5--3-3------------5-5--3-3------------5-5--3-3-3-3-4-4-4-4-5-5-5-5-6----------|
D|--------------------------------------------------------------------------------------------|

Refrão 2X

Em   G     B
Zombie queen
Em   G     B
Zombie queen
Bm          A
Black light guides you
Em        C
Ghuleh... Ghuleh...


Solo 1

Riff                    C5 G5 F#5 F5 E5 Riff    (Base igual ao refrão)

D|---------------------------------------------12---|
A|---------------------------------------------12---|
F|---------------------------------------------12---|
C|--------------------------------------------------|
G|------9b10r9--7----5--7---------------------------|
D|---7-------------7------6b7r6~~-5~-4~-3~----------|


Riff               C5  G5
Up from the stinking dirt
    F#5    F5     E5
She rises ghastly pale
Riff                    C5   G5
Shapeschifting soon, but now she's
F#5     F5        E5  Riff
Rigid, stiff and stale


Solo 2
     G         F#          G          F#          G         F#       G     F#        Em      D      A7    F7M    (2X)
D|--------------------------------------------------------------------------------|--------------------------------|
A|-10h12-12-12--12-12-12----------------------------------------------------------|--10-12-------------------------|
F|------------------------12p11-11-11--11-11-11--12p9-9-9--9-9-9--7h9-9-9--9-9-9--|----------12-11--12-9--7-9------|
C|--------------------------------------------------------------------------------|--------------------------------|
G|--------------------------------------------------------------------------------|--------------------------------|
D|--------------------------------------------------------------------------------|--------------------------------|

     Em                                                       D
D|-----------------------------------------------------------------------------------------------------------------------|
A|--10h12-12-12-12-12-12-12-12-12--10h12-12-12--10h12-12-12--------------------------------------------------------------|
F|-----------------------------------------------------------12p11-11-11-11-11-11-11-11-11-11--12p11-11-11--12p11-11-11--|
C|-----------------------------------------------------------------------------------------------------------------------|
G|-----------------------------------------------------------------------------------------------------------------------|
D|-----------------------------------------------------------------------------------------------------------------------|

    A7                                     F7M
D|----------------------------------------------------------------------------------|
A|-7h9-9-9-9-9-9-9-9-9--7h9-9-9--7h9-9-9--7h9-9-9-9-9-9-9-9-9--7h9-9-9--7h9-9-9-----|
F|----------------------------------------------------------------------------------|
C|----------------------------------------------------------------------------------|
G|----------------------------------------------------------------------------------|
D|----------------------------------------------------------------------------------|

     Em                                                       D
D|-----------------------------------------------------------------------------------------------------------------------|
A|--10h12-12-12-12-12-12-12-12-12--10h12-12-12--10h12-12-12--------------------------------------------------------------|
F|-----------------------------------------------------------12p11-11-11-11-11-11-11-11-11-11--12p11-11-11--12p11-11-11--|
C|-----------------------------------------------------------------------------------------------------------------------|
G|-----------------------------------------------------------------------------------------------------------------------|
D|-----------------------------------------------------------------------------------------------------------------------|

  A7                                     F7M                    Em  G  B
D|------------------------------------------------------------------|
A|-7h9-9-9-9-9-9-9-9-9--7h9-9-9--7h9-9-9--7-9-7-9-9b10r9-7-7-9~~~---|
F|------------------------------------------------------------------|
C|------------------------------------------------------------------|
G|------------------------------------------------------------------|
D|------------------------------------------------------------------|


Refrão 3X

Em   G     B
Zombie queen
Em   G     B
Zombie queen
Bm          A
Black light guides you
Em        C
Ghuleh... Ghuleh...


Final

Em G B
Em G B
Bm A
Em Cm (2x) D5 E5
00:00 / 00:00
Outros vídeos desta música
Repetir
Outros vídeos desta música
Composição de Ghost / Ottavio Lourenço
Colaboração e revisão:
  • Herik Matheus
3.742 exibições
    • ½ Tom
    • A
    • Bb
    • B
    • C
    • Db
    • D
    • Eb
    • E
    • F
    • F#
    • G
    • Ab
  • Adicionar à lista

    0 comentários

    Ver todos os comentários

    Conseguiu tocar?

    0 Tocaram 0 Ainda não

    Grave um vídeo tocando Ghuleh / Zombie Queen e nos envie!

    Entre para oCifra Club PRO

    Tenha acesso a benefícios exclusivos no App e no Site

    • Chega de anúncios

    • Prioridade de compra em lançamentos

    • Mais recursos no app do Afinador

    • Atendimento Prioritário

    • Descontos nos produtos Cifra Club

    • Ajude a produzir mais conteúdo

    00:00 / 00:00

    Cifra Club Pro

    Aproveite o Cifra Club com benefícios exclusivos e sem anúncios
    Cifra Club Pro
    Aproveite o Cifra Club com benefícios exclusivos e sem anúncios
    OK