Cifra Club

Aprenda

Jigolo Har Meggido

Ghost

Cifra: Principal (violão e guitarra)
Tom: A (forma dos acordes no tom de B) Afinação: D G C F A D
Guitarra ->1 tom abaixo

Intro:  A5 G5 F5 C5 D5 2x

    I am the one who preys
D|-------------------------------------------------|
A|-------------------------------------------------|
F|-------------------------------------------------|
C|----------------------7/9-9-9-9-9----------------|
G|------9-9--7-7--5-5---5/7-7-7-7-7----------------|
D|------7-7--5-5--3-3------------------------------|

  on weak
D|-------------------------------------------------|
A|-------------------------------------------------|
F|-------------------------------------------------|
C|-------------------------------------------------|
G|--------------5----------------------------------|
D|--7-5-7-5--5---3---2h3h2-------------------------|


 I offer everything they
D|-------------------------------------------------|
A|-------------------------------------------------|
F|-------------------------------------------------|
C|----------------------7/9-9-9-9-9----------------|
G|------9-9--7-7--5-5---5/7-7-7-7-7----------------|
D|------7-7--5-5--3-3------------------------------|

  seek
D|-------------------------------------------------|
A|-------------------------------------------------|
F|-------------------------------------------------|
C|-------------------------------------------------|
G|--------------5----------------------------------|
D|--7-5-7-5--5---3---2h3h2-------------------------|


And i am the one who comes
D|-------------------------------------------------|
A|-------------------------------------------------|
F|-------------------------------------------------|
C|------------------11/12-12---9999999-------------|
G|------9-9--7-7-----9/10-10---7777777-------------|
D|------7-7--5-5-----------------------------------|

  richly endowed
D|-------------------------------------------------|
A|-------------------------------------------------|
F|-------------------------------------------------|
C|--------------12-12-13-13-14-14------------------|
G|------9-9-----10-10-11 11-12-12------------------|
D|------7-7----------------------------------------|

  Harvesting crops of fields
D|-------------------------------------------------|
A|-------------------------------------------------|
F|-------------------------------------------------|
C|----------------------7/9-9-9-9-9----------------|
G|------9-9--7-7--5-5---5/7-7-7-7-7----------------|
D|------7-7--5-5--3-3------------------------------|

 that others have ploughed
D|-------------------------------------------------|
A|-------------------------------------------------|
F|-------------------------------------------------|
C|-------------------------------------------------|
G|------7----------2----------12----------7--------|
D|------5----------0----------10----------5--------|


 I am the one, lascivious
D|--- ----------------------------------------------|
A|--------------------------------------------------|
F|--------------------------------------------------|
C|--------------5--5--5--5--------------------------|
G|--2--2--2--2--3--3--3--3--5--5--5--5---9999999999-|
D|--0--0--0--0--------------3--3--3--3---7777777777-|


I am the son of one
D|-------------------------------------------------|
A|-------------------------------------------------|
F|-------------------------------------------------|
C|----------------------7/9-9-9-9-9----------------|
G|------9-9--7-7--5-5---5/7-7-7-7-7----------------|
D|------7-7--5-5--3-3------------------------------|


below
D|-------------------------------------------------|
A|-------------------------------------------------|
F|-------------------------------------------------|
C|-------------------------------------------------|
G|--------------5----------------------------------|
D|--7-5-7-5--5---3---2h3h2-------------------------|

The progeny of beast
D|-------------------------------------------------|
A|-------------------------------------------------|
F|-------------------------------------------------|
C|----------------------7/9-9-9-9-9----------------|
G|------9-9--7-7--5-5---5/7-7-7-7-7----------------|
D|------7-7--5-5--3-3------------------------------|

 of woe
D|-------------------------------------------------|
A|-------------------------------------------------|
F|-------------------------------------------------|
C|-------------------------------------------------|
G|--------------5----------------------------------|
D|--7-5-7-5--5---3---2h3h2-------------------------|


And i am the son who comes
D|-------------------------------------------------|
A|-------------------------------------------------|
F|-------------------------------------------------|
C|------------------11/12-12---9999999-------------|
G|------9-9--7-7-----9/10-10---7777777-------------|
D|------7-7--5-5-----------------------------------|

into the daughters of men
D|-------------------------------------------------|
A|-------------------------------------------------|
F|-------------------------------------------------|
C|--------------12-12-13-13-14-14------------------|
G|------9-9-----10-10-11 11-12-12------------------|
D|------7-7----------------------------------------|


 Destroying all and make them
D|-------------------------------------------------|
A|-------------------------------------------------|
F|-------------------------------------------------|
C|----------------------7/9-9-9-9-9----------------|
G|------9-9--7-7--5-5---5/7-7-7-7-7----------------|
D|------7-7--5-5--3-3------------------------------|

want  it again
D|-------------------------------------------------|
A|-------------------------------------------------|
F|-------------------------------------------------|
C|-------------------------------------------------|
G|------7----------2----------12----------7--------|
D|------5----------0----------10----------5--------|

 I am the son, lascivious
D|--- ----------------------------------------------|
A|--------------------------------------------------|
F|--------------------------------------------------|
C|--------------5--5--5--5--------------------------|
G|--2--2--2--2--3--3--3--3--5--5--5--5---9999999999-|
D|--0--0--0--0--------------3--3--3--3---7777777777-|

SOLO

He is the one desacralizer
D|-------------------------------------------------|
A|-------------------------------------------------|
F|--------12----11-----9-----7----3----------------|
C|-------------------------------------------------|
G|-------------------------------------------------|
D|-------------------------------------------------|

He is the son of the enticer
D|-------------------------------------------------|
A|--------12----10-----8-----7----14---------------|
F|-------------------------------------------------|
C|-------------------------------------------------|
G|-------------------------------------------------|
D|-------------------------------------------------|

The all seeing subterranian kaiser
D|-------------------------------------------------|
A|-------------------------------------------------|
F|--------12----11-----9-----7----3----------------|
C|-------------------------------------------------|
G|-------------------------------------------------|
D|-------------------------------------------------|


He is is the way, he is the way
D|-------------------------------------------------|
A|--------12----10----8----5-----------------------|
F|-------------------------------------------------|
C|-------------------------------------------------|
G|-------------------------------------------------|
D|-------------------------------------------------|

I am the way...
D|-------------------------------------------------|
A|-------------------------------------------------|
F|-------------------------------------------------|
C|---------------------------------7/9-9-9-9-9-----|
G|--5--------------9-9--7-7--5-5---5/7-7-7-7-7-----|
D|----3--2h3-2-----7-7--5-5--3-3-------------------|

And you invited me to stay
D|-------------------------------------------------|
A|-------------------------------------------------|
F|-------------------------------------------------|
C|----------------------7/9-9-9-9-9----------------|
G|------9-9--7-7--5-5---5/7-7-7-7-7----------------|
D|------7-7--5-5--3-3------------------------------|

However fair and pure,
D|-------------------------------------------------|
A|-------------------------------------------------|
F|-------------------------------------------------|
C|------------------11/12-12---9999999-------------|
G|------9-9--7-7-----9/10-10---7777777-------------|
D|------7-7--5-5-----------------------------------|

you crave the wand
D|-------------------------------------------------|
A|-------------------------------------------------|
F|-------------------------------------------------|
C|--------------12-12-13-13-14-14------------------|
G|------9-9-----10-10-11 11-12-12------------------|
D|------7-7----------------------------------------|

You see through me what lies beyond
D|-------------------------------------------------|
A|-------------------------------------------------|
F|-------------------------------------------------|
C|----------------------7/9-9-9-9-9----------------|
G|------9-9--7-7--5-5---5/7-7-7-7-7----------------|
D|------7-7--5-5--3-3------------------------------|

 beyond
D|-------------------------------------------------|
A|-------------------------------------------------|
F|-------------------------------------------------|
C|-------------------------------------------------|
G|------7----------2----------12----------7--------|
D|------5----------0----------10----------5--------|

I am the one lascivious
D|--- ----------------------------------------------|
A|--------------------------------------------------|
F|--------------------------------------------------|
C|--------------5--5--5--5--------------------------|
G|--2--2--2--2--3--3--3--3--5--5--5--5---9999999999-|
D|--0--0--0--0--------------3--3--3--3---7777777777-|

I am the one lascivious
D|--- ----------------------------------------------|
A|--------------------------------------------------|
F|--------------------------------------------------|
C|--------------5--5--5--5--------------------------|
G|--2--2--2--2--3--3--3--3--5--5--5--5--5--5-4-3----|
D|--0--0--0--0--------------3--3--3--3--3--3-2-1----|

I am the one lascivious
D|--- ----------------------------------------------|
A|--------------------------------------------------|
F|--------------------------------------------------|
C|--------------5--5--8--8--------------------------|
G|--2--2--2--2--3--3--6--6--5--5--5--5--5--5-4-3-2--|
D|--0--0--0--0--------------3--3--3--3--3--3-2-1-0--|
Composição de A Ghoul Writer
Colaboração e revisão:
  • Guilherme Souza
  • Arthur Medeiros
8.511 exibições
    • ½ Tom
    • A
    • Bb
    • B
    • C
    • Db
    • D
    • Eb
    • E
    • F
    • F#
    • G
    • Ab
  • Adicionar à lista

    0 comentários

    Mostrar mais comentários

    Conseguiu tocar?

    6 Tocaram 0 Ainda não

    Grave um vídeo tocando Jigolo Har Meggido e mande pra gente!

    00:00 / 00:00
    outros vídeos desta música
    repetir qualidade Automático
    Outros vídeos desta música
    00:00 / 00:00
    Automático

    Cifra Club Pro

    Aproveite o Cifra Club com benefícios exclusivos e sem anúncios
    Cifra Club Pro
    Aproveite o Cifra Club com benefícios exclusivos e sem anúncios
    OK