Cifra Club

O Mapa do Tesouro

Gisele Nascimento

Cifra: Principal
exibições 190.703
Tom: E
Intro: C#m7  A9/C#  E/B  G#m7  F#m7

Solo Intro:

Parte 1 de 3

E|--------------------------------------------------|
B|-----------------------7/9-9--7-7-7-5-4-5-5/7-----|
G|-6-6-8-9-9\-2-2--4-6-4------------------------4-4-|
D|--------------------------------------------------|
A|--------------------------------------------------|
E|--------------------------------------------------|

Parte 2 de 3

E|------------------------------7\-2/4--------------|
B|-4h5p4-------4/5-5-------9h10-9\-4/5--------------|
G|-------6-4/2--------------------------------------|
D|--------------------9h11--------------------------|
A|--------------------------------------------------|
E|--------------------------------------------------|

Parte 3 de 3

E|--------------------------------------------------|
B|-----5-7/9-7-5-4----------------------------------|
G|--------------------------------------------------|
D|-4/6-------7-6-4----------------------------------|
A|--------------------------------------------------|
E|--------------------------------------------------|

Primeira Parte:

C#m7                  A9
     Ninguém é super homem
                   F#m7
Deus não te fez de aço
                 G#m7
Não leve em teus ombros
                       C#m7
Além do que ele te deixou
               A9
O mundo é natural
              F#m7
A carne é mortal
          G#7(4)      G#7      A9
É a realidade pra chegar no ideal

Segunda Parte:

           B4         G#m7         A9
O inimigo luta pra você deixar a cruz
              B4                    A9
Sem ela, ele sabe que você negou Jesus
              G#m7                    A9
O peso da tribulação não dá pra comparar
                B4
Com o peso da glória que o céu
         D9  A9/C#
Vai revela_________r

Refrão:

         B4          C#m7
Não despreze a sua cruz
               F#m7                   B4
Ela tem sua medida, Deus um dia calculou
               E                  E/G#  A9
Ele conhece a força e a fraqueza de um pecador
                 F#m7
O calvário declarou
                   G#m7
Com o sangue de Jesus
                      A9
Para o mundo o seu valor
         B4          C#m7
Não despreze a sua cruz
                 F#m7                     B/D#
A renúncia é o braço de equilíbrio pra você
                 E             G#m7      A9
Hoje você não entende, mas um dia irá saber
                E/G#  F#m7
Que as pegadas de  Jesus
                 G#7(4)
São o mapa do tesouro
          G#7
Deus tem recompensa
A9        B4  F#m7
   Pra voc_________ê

Segunda Parte:

           B4                      A9
O inimigo luta pra você deixar a cruz
              B4                    A9
Sem ela, ele sabe que você negou Jesus
              G#m7                    A9
O peso da tribulação não dá pra comparar
                B4
Com o peso da glória que o céu
         D9  A9/C#
Vai revela_________r

Refrão:

         B4          C#m7
Não despreze a sua cruz
               F#m7                   B4
Ela tem sua medida, Deus um dia calculou
               E                  E/G#  A9
Ele conhece a força e a fraqueza de um pecador
                 F#m7
O calvário declarou
                   G#m7
Com o sangue de Jesus
                      A9
Para o mundo o seu valor
         B4          C#m7
Não despreze a sua cruz
                 F#m7                     B4
A renúncia é o braço de equilíbrio pra você
      B/D#       E             G#m7      A9
Hoje você não entende, mas um dia irá saber
                E/G#  F#m7
Que as pegadas de  Jesus
                 G#7(4)
São o mapa do tesouro
          G#7
Deus tem recompensa
  A9  (Riff)
Pra você      

Riff:

E|--------------------------------------------------|
B|--------------------------------------------------|
G|--------------------------------------------------|
D|--------------------------------------------------|
A|-7-6-4--------------------------------------------|
E|-------7-4----------------------------------------|

Terceira Parte:

   A9                   B4
A cruz é a responsabilidade do fiel
  A9
É o domínio sobre a carne
   B/A
A ponte para o céu
 C#m7         G#m7
Diga sim pra Deus
     A9            E/G#
Não negue o que é seu
        D9         A9/C#     B4
A trajetória certa Ele escreveu


Refrão:

         B4          C#m7
Não despreze a sua cruz
               F#m7                   B4
Ela tem sua medida, Deus um dia calculou
               E                  E/G#  A9
Ele conhece a força e a fraqueza de um pecador
                 F#m7
O calvário declarou
                   G#m7
Com o sangue de Jesus
                      A9
Para o mundo o seu valor
         B4          C#m7
Não despreze a sua cruz
                 F#m7                     B4
A renúncia é o braço de equilíbrio pra você
      B/D#       E             G#m7      A9
Hoje você não entende, mas um dia irá saber
                E/G#  F#m7
Que as pegadas de  Jesus
                 G#7(4)
São o mapa do tesouro
          G#7
Deus tem recompensa
A9        B4  A9  B4
   Pra você
       C#/G#
Pra você

0 comentários

    mostrar mais comentários

    Conseguiu tocar?

    8tocaram2ainda não

    Grave um vídeo tocando O Mapa do Tesouro e mande pra gente!

    00:00 / 00:00
    outros vídeos desta música
    repetirqualidadeautomática
    Outro vídeos desta música
      00:00 / 00:00
      automática
      OK