Cifra Club

Dreamland

Glass Animals

Cifra: Principal (violão e guitarra)
Selo Cifra Club: esta cifra foi revisada para atender aos critérios oficiais da nossa Equipe de Qualidade.
tom: G
    C               G                         C               G
E|------0--3--7--8-----------2--5--7p5--3--2------0--3--7--8-----------2--5--7p5--3--2--|
B|--1------------------0--3-------------------1------------------0--3-------------------|
G|------------------0-----------------------------------------0-------------------------|
D|--------------------------------------------------------------------------------------|
A|--------------------------------------------------------------------------------------|
E|--------------------------------------------------------------------------------------|

[Alternate intro] x3
    C              G                            C              G
E|--------------------------------------------------------------------------------------|
B|-----------0--1----------------------------------------0--1---------------------------|
G|--------0---------------------2-4p2-0---------------0---------------------2-4p2-0-----|
D|-----2-----------------0--4--------------4-------2-----------------0--4------------4--|
A|--3-----------------2-------------------------3-----------------2---------------------|
E|-----------------3-------------------------------------------3------------------------|


[Chorus]
C                         G
Pullin' down backstreets, deep in your head
C                          G
Slippin' through dreamland like a tourist
C                         G
Pullin' down backstreets, deep in your head
C                         G
Slippin' through dreamland like a tourist


[Verse]
C                         G
That first friend you had, that worst thing you said
C                    G
That perfect moment, that last tear you shed
C                      G
All you've done in bed, all on Memorex
C                          G
All round round your head, all round round your head


[Chorus]
C                         G
Pullin' down backstreets, deep in your head
C                         G
Slippin through dreamland like a tourist
C                         G
Pullin' down backstreets, deep in your head
C                          G
Slippin' through dreamland like a tourist


[Verse]
C                          G
You've had too much of the digital love
         D                         Em
You want everything live, you want things you can touch
        C                     G
Make it feel like a movie you saw in your youth
        D                             G
Make it feel like that song that just unopened you
         C                      Em
You were ten years old, holdin' hands in the classroom
D                   Em
He had a gun on the first day of high school
         C                      G
You want something bizarre, old conceptual cars
         D                               G
You want girls dressed in drag, you want boys with guitars


[Interlude]
    C               G                         C               G
E|------0--3--7--8-----------2--5--7p5--3--2------0--3--7--8-----------2--5--7p5--3--2--|
B|--1------------------0--3-------------------1------------------0--3-------------------|
G|------------------0-----------------------------------------0-------------------------|
D|--------------------------------------------------------------------------------------|
A|--------------------------------------------------------------------------------------|
E|--------------------------------------------------------------------------------------|


[Chorus]
C                         G
Pullin' down backstreets, deep in your head
C                          G
Slippin' through dreamland like a tourist
C                         G
Pullin' down backstreets, deep in your head
C                          G
Slippin' through dreamland like a tourist


[Verse]
C                      G
You see in Kodachrome, you see pink and gold
C                        G
You see Mulholland glow, you see in airplane mode
C                          G
All round round your head, all round round your head
C                          G
All round round your head, all round round your head


[Interlude]
    C               G                         C               G
E|------0--3--7--8-----------2--5--7p5--3--2------0--3--7--8-----------2--5--7p5--3--2--|
B|--1------------------0--3-------------------1------------------0--3-------------------|
G|------------------0-----------------------------------------0-------------------------|
D|--------------------------------------------------------------------------------------|
A|--------------------------------------------------------------------------------------|
E|--------------------------------------------------------------------------------------|


[Outro]
    C                           G
You float in the pool where the soundtrack is canned
    C                           G
You go ask your questions like, "What makes a man?"
         C             G
Oh, it's 2020, so it's time to change that
       C                    G
So you go make an album and call it Dreamland
Outros vídeos desta música
    55 exibições
      • ½ Tom
      • A
      • Bb
      • B
      • C
      • Db
      • D
      • Eb
      • E
      • F
      • F#
      • G
      • Ab
    • Adicionar à lista

    Afinação da cifra

    Afinador online

      0 comentários

      Ver todos os comentários

      Conseguiu tocar?

      0Tocaram0Ainda não

      Grave um vídeo tocando Dreamland e nos envie!

      Toque também

      1. Imagem do artista Alt-JBreezeblocks Alt-J
      2. Imagem do artista Electric GuestTroubleman Electric Guest
      3. Imagem do artista JoywaveIts A Trip Joywave
      4. Imagem do artista Max FrostDie Young Max Frost

      Entre para o Cifra Club PRO

      Tenha acesso a benefícios exclusivos no App e no Site

      • Chega de anúncios

      • Badges exclusivas

      • Mais recursos no app do Afinador

      • Atendimento Prioritário

      • Aumente seu limite de lista

      • Ajude a produzir mais conteúdo

      Cifra Club Pro

      Aproveite o Cifra Club com benefícios exclusivos e sem anúncios
      Cifra Club Pro
      Aproveite o Cifra Club com benefícios exclusivos e sem anúncios
      Ops (: Contenido disponible sólo en portugués.
      OK