Cifra Club

Aprenda

Minha Paz

Gloria

Cifra: Principal (violão e guitarra)
tom: E
Intro:
Tente me olhar e provar que meu mundo acabou...
B|------------------------------------------------|
F|---------------------3---3-----3---3------------|
B|-2---2-----2---2-------5---------5--------------|
E|---4---------4--------------7~--------7~--------|   (3x)
G|-------7~---------7~----------------------------|
C|------------------------------------------------|

Se o tempo parar pra nos dois vou tentar continuar...
B|-7-7-7-7-7-7-7-7-7-7-7-7--------------------------|
F|-7-7-7-7-7-7-7-7-7-7-7-7-3-3-3-3-3-3-3-3-3-3-3-3--|
B|-7-7-7-7-7-7-7-7-7-7-7-7-5-5-5-5-5-5-5-5-5-5-5-5--|
E|-------------------------5-5-5-5-5-5-5-5-5-5-5-5--|
G|--------------------------------------------------|
C|--------------------------------------------------|

Ponte:
Hoje perco voce, em meus bracos e morro um pouco mais...
B|-2-2-0-2-3*---2-2-0-2-3*---------------------------|
F|-2-2-0-2------2-2-0-2----3-3-3-3-3-3-3-3-3-3-3-3-3-|
B|-2-2-0-2------2-2-0-2----5-5-5-5-5-5-5-5-5-5-5-5-5-|
E|-------------------------5-5-5-5-5-5-5-5-5-5-5-5-5-|   (2x)
G|---------------------------------------------------|
C|---------------------------------------------------|

Refrao:
Viver sem voce aqui, sem voce sorrir pra mim
B|-5-5-5-5-5-5-5-5-5-5-5-5-5-5-5-------------------------------|
F|-5-5-5-5-5-5-5-5-5-5-5-5-5-5-5-7-7-7-7-7-7-7-7-7-7-7-7-7-7-7-|
B|-5-5-5-5-5-5-5-5-5-5-5-5-5-5-5-9-9-9-9-9-9-9-9-9-9-9-9-9-9-9-|
E|-------------------------------9-9-9-9-9-9-9-9-9-9-9-9-9-9-9-|
G|-------------------------------------------------------------|
C|-------------------------------------------------------------|

E so mais uma vez.
B|-------------------------------------------------------------|
F|-3-3-3-3-3-3-3-3-3-3-3-3-3-3-3-5-5-5-5-5-5-5-5-5-5-5-5-5-5-5-|
B|-5-5-5-5-5-5-5-5-5-5-5-5-5-5-5-7-7-7-7-7-7-7-7-7-7-7-7-7-7-7-|
E|-5-5-5-5-5-5-5-5-5-5-5-5-5-5-5-7-7-7-7-7-7-7-7-7-7-7-7-7-7-7-|
G|-------------------------------------------------------------|
C|-------------------------------------------------------------|

Deixa eu te falar...
B|------------------------------------------------|
F|---------------------3---3-----3---3------------|
B|-2---2-----2---2-------5---------5--------------|
E|---4---------4--------------7~--------7~--------|   (3x)
G|-------7~---------7~----------------------------|
C|------------------------------------------------|

Se o tempo parar pra nos dois vou tentar continuar...
B|-7-7-7-7-7-7-7-7-7-7-7-7--------------------------|
F|-7-7-7-7-7-7-7-7-7-7-7-7-3-3-3-3-3-3-3-3-3-3-3-3--|
B|-7-7-7-7-7-7-7-7-7-7-7-7-5-5-5-5-5-5-5-5-5-5-5-5--|
E|-------------------------5-5-5-5-5-5-5-5-5-5-5-5--|
G|--------------------------------------------------|
C|--------------------------------------------------|

Refrao 2x:
Viver sem voce aqui, sem voce sorrir pa mim
B|-5-5-5-5-5-5-5-5-5-5-5-5-5-5-5-------------------------------|
F|-5-5-5-5-5-5-5-5-5-5-5-5-5-5-5-7-7-7-7-7-7-7-7-7-7-7-7-7-7-7-|
B|-5-5-5-5-5-5-5-5-5-5-5-5-5-5-5-9-9-9-9-9-9-9-9-9-9-9-9-9-9-9-|
E|-------------------------------9-9-9-9-9-9-9-9-9-9-9-9-9-9-9-|
G|-------------------------------------------------------------|
C|-------------------------------------------------------------|

E so mais uma vez.
B|-------------------------------------------------------------|
F|-3-3-3-3-3-3-3-3-3-3-3-3-3-3-3-5-5-5-5-5-5-5-5-5-5-5-5-5-5-5-|
B|-5-5-5-5-5-5-5-5-5-5-5-5-5-5-5-7-7-7-7-7-7-7-7-7-7-7-7-7-7-7-|
E|-5-5-5-5-5-5-5-5-5-5-5-5-5-5-5-7-7-7-7-7-7-7-7-7-7-7-7-7-7-7-|
G|-------------------------------------------------------------|
C|-------------------------------------------------------------|

Ponte:
Outra vez agarro meu sonhos e deixo o vento te trazer...
B|-2-2-0-2-3*---2-2-0-2-3*---------------------------|
F|-2-2-0-2------2-2-0-2----3-3-3-3-3-3-3-3-3-3-3-3-3-|
B|-2-2-0-2------2-2-0-2----5-5-5-5-5-5-5-5-5-5-5-5-5-|
E|-------------------------5-5-5-5-5-5-5-5-5-5-5-5-5-|   (2x)
G|---------------------------------------------------|
C|---------------------------------------------------|

Nunca mais. nunca mais...
B|-7-7-7-7-7-7-7-7-7-7-7-7-7-7-7-7-7-----------------------------------|
F|-7-7-7-7-7-7-7-7-7-7-7-7-7-7-7-7-7-3-3-3-3-3-3-3-3-3-3-3-3-3-3-3-3-3-|
B|-7-7-7-7-7-7-7-7-7-7-7-7-7-7-7-7-7-5-5-5-5-5-5-5-5-5-5-5-5-5-5-5-5-5-|
E|-----------------------------------5-5-5-5-5-5-5-5-5-5-5-5-5-5-5-5-5-|
G|---------------------------------------------------------------------|
C|---------------------------------------------------------------------|
PM______________________________________________________________________

Viver sem voce aqui, sem voce sorrir pa mim
B|-5-5-5-5-5-5-5-5-5-5-5-5-5-5-5-------------------------------|
F|-5-5-5-5-5-5-5-5-5-5-5-5-5-5-5-7-7-7-7-7-7-7-7-7-7-7-7-7-7-7-|
B|-5-5-5-5-5-5-5-5-5-5-5-5-5-5-5-9-9-9-9-9-9-9-9-9-9-9-9-9-9-9-|
E|-------------------------------9-9-9-9-9-9-9-9-9-9-9-9-9-9-9-|
G|-------------------------------------------------------------|
C|-------------------------------------------------------------|
PM______________________________________________________________

E so mais uma vez.
B|---------------------------------------|
F|-3-3-3-3-3-3-3-3-3-3-3-3-3-3-3-3-3--3~-|
B|-5-5-5-5-5-5-5-5-5-5-5-5-5-5-5-5-5--5~-|
E|-5-5-5-5-5-5-5-5-5-5-5-5-5-5-5-5-5--5~-|
G|---------------------------------------|
C|---------------------------------------|
PM___________________________________

Refrao 2x: 
Viver sem voce aqui, sem voce sorrir pa mim
B|-5-5-5-5-5-5-5-5-5-5-5-5-5-5-5-------------------------------|
F|-5-5-5-5-5-5-5-5-5-5-5-5-5-5-5-7-7-7-7-7-7-7-7-7-7-7-7-7-7-7-|
B|-5-5-5-5-5-5-5-5-5-5-5-5-5-5-5-9-9-9-9-9-9-9-9-9-9-9-9-9-9-9-|
E|-------------------------------9-9-9-9-9-9-9-9-9-9-9-9-9-9-9-|
G|-------------------------------------------------------------|
C|-------------------------------------------------------------|

E so mais uma vez.
B|-------------------------------------------------------------|
F|-3-3-3-3-3-3-3-3-3-3-3-3-3-3-3-5-5-5-5-5-5-5-5-5-5-5-5-5-5-5-|
B|-5-5-5-5-5-5-5-5-5-5-5-5-5-5-5-7-7-7-7-7-7-7-7-7-7-7-7-7-7-7-|
E|-5-5-5-5-5-5-5-5-5-5-5-5-5-5-5-7-7-7-7-7-7-7-7-7-7-7-7-7-7-7-|
G|-------------------------------------------------------------|
C|-------------------------------------------------------------|

Final 2x:
Mais uma vez ver voce sorrir
B|-5-5-5-5-5-5-5-5-5-5-5-5-5-5-5-------------------------------|
F|-5-5-5-5-5-5-5-5-5-5-5-5-5-5-5-7-7-7-7-7-7-7-7-7-7-7-7-7-7-7-|
B|-5-5-5-5-5-5-5-5-5-5-5-5-5-5-5-9-9-9-9-9-9-9-9-9-9-9-9-9-9-9-|
E|-------------------------------9-9-9-9-9-9-9-9-9-9-9-9-9-9-9-|
G|-------------------------------------------------------------|
C|-------------------------------------------------------------|

So mais uma vez pra mim
B|-------------------------------------------------------------|
F|-3-3-3-3-3-3-3-3-3-3-3-3-3-3-3-5-5-5-5-5-5-5-5-5-5-5-5-5-5-5-|
B|-5-5-5-5-5-5-5-5-5-5-5-5-5-5-5-7-7-7-7-7-7-7-7-7-7-7-7-7-7-7-|
E|-5-5-5-5-5-5-5-5-5-5-5-5-5-5-5-7-7-7-7-7-7-7-7-7-7-7-7-7-7-7-|
G|-------------------------------------------------------------|
C|-------------------------------------------------------------|

So mais uma vez...
B|-5~~~~~~--|
F|-5~~~~~~--|
B|-5~~~~~~--|
E|----------|
G|----------|
C|----------|
Composição de Elliot / Fil / Johnny / Mi
Colaboração e revisão:
  • Fábio Nascimento
  • wellington jordão
199.241 exibições
    • ½ Tom
    • A
    • Bb
    • B
    • C
    • Db
    • D
    • Eb
    • E
    • F
    • F#
    • G
    • Ab
  • Adicionar à lista

    0 comentários

    Ver todos os comentários

    Conseguiu tocar?

    11 Tocaram 0 Ainda não

    Grave um vídeo tocando Minha Paz e nos envie!

    00:00 / 00:00
    Outros vídeos desta música
    Repetir Qualidade Automático
    Outros vídeos desta música
    00:00 / 00:00
    Automático

    Cifra Club Pro

    Aproveite o Cifra Club com benefícios exclusivos e sem anúncios
    Cifra Club Pro
    Aproveite o Cifra Club com benefícios exclusivos e sem anúncios
    OK