Cifra Club

Aprenda

Sua Canção

Gloria

Cifra: Principal (violão e guitarra)
tom: G
Intro: G

     G                G
E|---------3--------3--|
B|-----------3------3--|
G|-----0-------0----0--|
D|---0---0-------0--0--|
A|------------------2--|
E|-3----------------3--|

G                          C9
Só me diz, se é o que você sempre quis
               Em             D                     C9
Se isso vai te fazer pensar, já que não pode me ajudar
G                       C9
Deixa assim, deixa tudo só para mim
                Em              D                      C9
Deixa eu ver no que vai dar, porque eu só quero é ser feliz

Em  C9   D   D#°                Em        D
Vou esperar por você em todo lugar, mesmo sabendo que
D4            C9
não vai voltar

G                   C9
Ilusão, me tirou da direção
             Em            D                  C9
Não me deixa mais sonhar e me empede de enxergar
G                      C9
Veja bem, faça o que quiser fazer
             Em          D                       C9
Eu não posso te prender, pois te ensinei a libertar

Em  C9   D   D#°                 Em          D
Vou esperar por você em todo lugar, mesmo sabendo que
D4            C9
não vai voltar
Em  C9   D   D#°                 Em          D
Vou escutar quando a sua canção tocar, mesmo sabendo que
D4          C9
não vai voltar

Solo:
E|--------------------------------|
B|----------13-12-----------------|
G|-12h14-14-------9h11-11-12-14---| (2x)
D|--------------------------------|
A|--------------------------------|
E|--------------------------------|

E|------------------------------------------------------------------------------------|
B|----------13-12----------------------15-------15-------15-15-15-15-15-15-15-15-15---|
G|-12h14-14-------9h11-11-12-14--14b15----14b15----14b15------------------------------|
D|------------------------------------------------------------------------------------|
A|------------------------------------------------------------------------------------|
E|------------------------------------------------------------------------------------|

Em  C9   D   D#°                Em          D
Vou esperar por você em todo lugar, mesmo sabendo que
D4          C9
Não vai voltar
Em  C9   D   D#°                Em              D
Vou escutar quando a sua canção tocar, mesmo sabendo que
D4         C9
Não vai voltar

Em     D
Mesmo sabendo que
    C9
Não vai chegar
Em     D
Mesmo sabendo que
    C9
Não quer voltar
Composição de Fonseca
102.480 exibições
    • ½ Tom
    • A
    • Bb
    • B
    • C
    • Db
    • D
    • Eb
    • E
    • F
    • F#
    • G
    • Ab
  • Adicionar à lista

    0 comentários

    Ver todos os comentários

    Conseguiu tocar?

    42 Tocaram 1 Ainda não

    Grave um vídeo tocando Sua Canção e nos envie!

    00:00 / 00:00
    Outros vídeos desta música
    Repetir Qualidade Automático
    Outros vídeos desta música
    00:00 / 00:00
    Automático

    Cifra Club Pro

    Aproveite o Cifra Club com benefícios exclusivos e sem anúncios
    Cifra Club Pro
    Aproveite o Cifra Club com benefícios exclusivos e sem anúncios
    OK