Cifra Club

Solid Rock

Goanna

Cifra: Principal (violão e guitarra)
Selo Cifra Club: esta cifra foi revisada para atender aos critérios oficiais da nossa Equipe de Qualidade.
tom: Am
E|E|-------------------------------------------------------------------------------||
                             Solid Rock - Goanna
E|E|-------------------------------------------------------------------------------||
Tabbed by: Luke

Tuning: standard


Great classic song.. When i heard it the other day on RockWiz i decided i'd tab it

[Fill 1]                

        Am
E|------------------------------------|
B|------1p0--0--1---1p0---0-----------|
G|------2p0--0--2---2p0---4p*-/5------|
D|------2p0--0--2---2p0---4p*-/5------|
A|--------------0---0-----2----3------|
E|------------------------------------| (x2)


  Am                                      G             F
        Out here nothin' changes, not in a hurry anyway
  Am                            G                       F
        You feel the endlessness with the comin' of the light o' day
D5
        We're talkin' about a chosen place
F5                                G5
        You wouldn't sell it in a marketplace, well

[Fill 1]

Well just a minute now


[Chorus]

            Am
Standing on solid rock
        G         F
Standing on sacred ground
        Am
Living o-on borrowed ti-i-i-ime
             G              F
And the winds of change are blowin' down the line

[Fill 1] (x2)

Right down the line

Am                                  G              F
        Round about the dawn o' time, When dreamin' all began
Am
        A croud o' people came
G                                         F
        Well they were looking for their promised land
D5
        Were running from the heart of darkness

E|----------------------------------------------|
B|----------------------------------------------|
G|----------------------------------------------|
D|---3--2--0------------------------------------|
A|------------3-2-0-----------------------------|
E|------------------3---------------------------|

Searching for the heart o' light

[Fill 1] (x2)
Well it was their paradise

[Chorus]
                            Am
But they were standin' on - solid rock
            G           F
Standing o-on sacred grou-ound
           Am
Living o-on borrowed ti-i-i-ime
                  G           F
And the winds of change were blowing cold that night


E|--0----------------------0----------------------------15-15-------|
B|----0-1--------------1-0------------3--0--------------------------|
G|--------2----------2----------------------0-----------------------|
D|-----------------2------------------------------------------------|
A|------------------------------------------------------------------|
E|------------------------------------------------------------------|

No

E|--------------22--20-20\------------------19--17-17----------------------|
B|-------------------------------------------------------------------------|
G|---14-16-17--------------------12-14-16----------------------------------|
D|-------------------------------------------------------------------------|
A|-------------------------------------------------------------------------|
E|-------------------------------------------------------------------------|

They were standin' on the shore one day, Saw the white sails in the sun
Wasn't long before they felt the sting, white man, white law, white gun

D5
        Don't tell me that it's justified,
E|---------------------------------|
B|---------------------------------|
G|---------------------------------|
D|---------------------------------|
A|--2--3---------------------------|
E|--0--1---------------------------|


'cause somewhere, someone lied

[Fill 1] (x4)

Yeah well someone lied, someone lied, genocide
Well someone lied, oh, ahh

                             Am
And now you're standing on - solid rock
            G           F
Standing o-on a sacred grou-ound
            Am
Living o-on borrowed ti-i-i-ime
                  G          F
And the winds of change are blowin' down the li-ine

Oh-oh-oh no, NO-O

Leave you guys to play around with that background solo.. I honestly couldn't be 
tabbing it..
Just listen to it and it's pretty sinch to pick up..


************************************

| p  Pull-off
| /  Slide up
| \  Slide down 
| *  just a slight pull off don't make it too noticeable
Outros vídeos desta música
    11 exibições
      • ½ Tom
      • Am
      • Bbm
      • Bm
      • Cm
      • C#m
      • Dm
      • Ebm
      • Em
      • Fm
      • F#m
      • Gm
      • G#m
    • Adicionar à lista

    Afinação da cifra

    Afinador online

      0 comentários

      Ver todos os comentários

      Entre para o Cifra Club PRO

      Tenha acesso a benefícios exclusivos no App e no Site

      • Chega de anúncios

      • Badges exclusivas

      • Mais recursos no app do Afinador

      • Atendimento Prioritário

      • Aumente seu limite de lista

      • Ajude a produzir mais conteúdo

      Cifra Club Pro

      Aproveite o Cifra Club com benefícios exclusivos e sem anúncios
      Cifra Club Pro
      Aproveite o Cifra Club com benefícios exclusivos e sem anúncios
      Ops (: Contenido disponible sólo en portugués.
      OK