Cifra Club

Extra Extra

Gob

Tab de baixo: Principal
intro
----------------------------------------|
------66-6-77-7---------------22-2------|
-77-7----------55-5-44-4-00-0------22-2-|
----------------------------------------|


--------------------------------------------------|
------66-6-77-7---------------22-2-22-2-22-2-22-2-|
-77-7----------55-5-44-4-00-0---------------------|
--------------------------------------------------|

verse
------------------------------------------------------------|
---------------------------22222222-------------------------|
-00000000-55555555-------------------0000-2-44444-555-0-2-0-|
-------------------22222222---------------------------------| 2X

chorus
----------------------------------------|
----------------------------------------|
-4444-0000-22222222--2222-4444-00000000-|
----------------------------------------| 2X

----------|
----------|
-00000000-
----------

----------------------------|
----------------------------|
-000000-555555-------555444-|
---------------222222-------| 2X

-----------------|
-----------------|
-000000000000000-
-----------------

take a long pause

verse
------------------------------------------------------------|
---------------------------22222222-------------------------|
-00000000-55555555-------------------0000-2-44444-555-0-2-0-|
-------------------22222222---------------------------------| 2X

chorus
----------------------------------------|
----------------------------------------|
-4444-0000-22222222--2222-4444-00000000-|
----------------------------------------| 2X

----------|
----------|
-00000000-
----------

intro
------------------------------------------------------|
------66-6-77-7---------------22-2--------------------|
-77-7----------55-5-44-4-00-0------22-2222222222222-0-|
------------------------------------------------------|

-----------------------------------------|
-----------------------------------------|
-----------------------------------------|
-55-4-0--2-2-265--626432--312---83h7-8h7-|
00:00 / 00:00
Outros vídeos desta música
Repetir
Outros vídeos desta música
Composição de Tommy ?
432 exibições

0 comentários

Ver todos os comentários

Conseguiu tocar?

0 Tocaram 0 Ainda não

Grave um vídeo tocando Extra Extra e nos envie!

Entre para oCifra Club PRO

Tenha acesso a benefícios exclusivos no App e no Site

  • Chega de anúncios

  • Prioridade de compra em lançamentos

  • Mais recursos no app do Afinador

  • Atendimento Prioritário

  • Descontos nos produtos Cifra Club

  • Ajude a produzir mais conteúdo

00:00 / 00:00

Cifra Club Pro

Aproveite o Cifra Club com benefícios exclusivos e sem anúncios
Cifra Club Pro
Aproveite o Cifra Club com benefícios exclusivos e sem anúncios
OK