Cifra Club

Bad Religion

Godsmack

Cifra: Principal (violão e guitarra)
tom: G
Drop D tunning 
 
                                Verse riff  
E: -----------------------|-----------------------------------------------------------------| 
B: -----------------------|-----------------------------------------------------------------| 
G: -----------------------|-----------------------------------------------------------------| 
D: --0--0--00--0--00-|---0--0--00--0--0--00--0--0--00--0--0--00------------| 
A: --0--0--00--0--00-|---0--0--00--0--0--00--0--0--00--0--0--00------------| 
D: --0--0--00--0--00-|---0--0--00--0--0--00--0--0--00--0--0--00------------| 
 
 
 6th time riff A is played, right before each chorus let that note ring for a 
half a second 
                                                                      ~~~~~~   
D: ---0--0--00--0--0--00--0--0--00--0--0--------------| 
A: ---0--0--00--0--0--00--0--0--00--0--0--------------| 
D: ---0--0--00--0--0--00--0--0--00--0--0--------------| 
 
 
Chorus 
     you may want to play around with how many times those notes are played 
E: -----------------------------------------------------------------------------| 
B: -----------------------------------------------------------------------------| 
G: ---5--55--55--55--55--55-----7--77--77--77--77--77----------| 
D: ---x--xx--xx--xx--xx--xx-----x--xx--xx--xx--xx--xx-----------| 
A: ---3--33--33--33--33--33-----5--55--55--55--55--55-----------| 
D: -----------------------------------------------------------------------------| 
 
 
E: ------------------------------------------------------------------------| 
B: ------------------------------------------------------------------------| 
G: ---5--55--55--55--55--55-----------------------------------| 
D: ---x--xx--xx--xx--xx--xx----------------0--0--00--0--00----| 
A: ---3--33--33--33--33--33----------------0--0--00--0--00----| 
D: ----------------------------------------0--0--00--0--00----| 
 
   verse again about 5 times 
E: -----------------------------------------------------| 
B: -----------------------------------------------------| 
G: -----------------------------------------------------| 
D: ---0--0--00--0--0--00--0--0--00--0--0--00------------| 
A: ---0--0--00--0--0--00--0--0--00--0--0--00------------| 
D: ---0--0--00--0--0--00--0--0--00--0--0--00------------| 
 
 
                                                                      ~~~~~~   
D: ---0--0--00--0--0--00--0--0--00--0--0--------------| 
A: ---0--0--00--0--0--00--0--0--00--0--0--------------| 
D: ---0--0--00--0--0--00--0--0--00--0--0--------------| 
 
 
Chorus 
E: -------------------------------------------------------------| 
B: -------------------------------------------------------------| 
G: ---5--55--55--55--55--55-----7--77--77--77--77--77-----------| 
D: ---x--xx--xx--xx--xx--xx-----x--xx--xx--xx--xx--xx-----------| 
A: ---3--33--33--33--33--33-----5--55--55--55--55--55-----------| 
D: -------------------------------------------------------------| 
 
 
E: -----------------------------------------------------------------------------------| 
B: -----------------------------------------------------------------------------------| 
G: ---5--55--55--55--55--55-----------------------------------------------------------| 
D: ---x--xx--xx--xx--xx--xx-----------------------------------------------------------| 
A: ---3--33--33--33--33--33----------------7--7---9h7----7--7---9h7---7--5--3--2------| 
D: ----------------------------------------7--7---9h7----7--7---9h7---7--5--3--2------| 
 
 
E: ---------------------------------------------------------------------------------------| 
B: ---------------------------------------------------------------------------------------| 
G: ---------------------------------------------------------------------------------------| 
D: ---------------------------------------------------------------------------------------| 
A: ---5---------------3-----------------------2--------------1-------------------------| 
D: -------2-2--0--------0-2-0-2-0-2--0-----2-2-0---------0-2-0-2-0-2--0----| 
 
Thats about it, the end riff is a variation of the verse riff
Composição de Tommy Scott
Colaboração e revisão:
  • vanderson domingues
3.496 exibições
    • ½ Tom
    • A
    • Bb
    • B
    • C
    • Db
    • D
    • Eb
    • E
    • F
    • F#
    • G
    • Ab
  • Adicionar à lista

    0 comentários

    Ver todos os comentários

    Conseguiu tocar?

    0 Tocaram 0 Ainda não

    Grave um vídeo tocando Bad Religion e nos envie!

    00:00 / 00:00
    Outros vídeos desta música
    Repetir Qualidade Automático
    Outros vídeos desta música
    00:00 / 00:00
    Automático

    Cifra Club Pro

    Aproveite o Cifra Club com benefícios exclusivos e sem anúncios
    Cifra Club Pro
    Aproveite o Cifra Club com benefícios exclusivos e sem anúncios
    OK