Cifra Club

Say My Name

Godsmack

Cifra: Principal (violão e guitarra)
Selo Cifra Club: esta cifra foi revisada para atender aos critérios oficiais da nossa Equipe de Qualidade.
tom: Dm
Riff 1
E|---|-----------------------------------------------|
B|---|-----------------------------------------------|
G|---|-----------------------------------------------|
D|---|-----------------------------------------------|
A|-\-|-----------------------8---8---8877---7777777--|
E|-\-|-3b--00--0005b--00--0008---8---8877---7777777--|

[Verse]
E|-----------------------------------------------------------|
B|-----------------------------------------------------------|
G|-----------------------------------------------------------|
D|-0---------------------------0-----------------------------|
A|-0---------------------------0-----------------------------|
E|-0---x-x-x---x-x-x---x-x-x---0---3-0-0-3-0-0-5-0-8-0-7-7-7-| x2

E|-----------------------------------------------------------|
B|-----------------------------------------------------------|
G|-----------------------------------------------------------|
D|-0---------------------------0-----------------------------|
A|-0---------------------------0-----------------------------|
E|-0---x-x-x-x-x-x-x-x-x-x-x-x-0---3-0-0-3-0-0-5-0-8-0-7-7-7-| x2

[Pre-Chorus]
E|---------------------------------------------------|
B|---------------------------------------------------|
G|---------------------3---------2--2--5--5--5-5-5-5-|
D|-5---------0---------3---------2--2--5--5--5-5-5-5-|
A|-5---------0---------1---------0--0--3--3--3-3-3-3-|
E|-5---------0---------------------------------------|

[Chorus]
E|---------------------------------|------------------------------------------|
B|---------------------------------|------------------------------------------|
G|---------3-------5-------7-------|---------3-------5-------2--2--3--3-------|
D|-0-------3-x16---5-x16---7-x16---|-0-------3-x16---5-x16---2--2--3--3---x-x-|
A|-0-x16---1-------3-------5-----\-|-0-x16---1-------3-------0--0--1--1---x-x-|
E|-0-----------------------------\-|-0----------------------------------------|

 (guitar 2)
E|-10-8----8-(x14)---10-10-10-10-10--| /22-20----20-(x12)-------------------\\--|
B|------10---------------------------|-------22--------------------------------|
G|-----------------------------------|-----------------------------------------|
D|-----------------------------------|-----------------------------------------|
A|-----------------------------------|-----------------------------------------|
E|-----------------------------------|-----------------------------------------|

Riff 1
[Verse]
[Pre-Chorus]

[Chorus 2]
E|-------------------------------------------------------------------------------|
B|-------------------------------------------------------------------------------|
G|---------3-------5-------7-----------------3-------5-------2--2--3--3--3-3-3---|
D|-0-------3-x16---5-x16---7-x16-----0-------3-x16---5-x16---2--2--3--3--3-3-3-\-|
A|-0-x16---1-------3-------5-----\\--0-x16---1-------3-------0--0--1--1--1-1-1-\-|
E|-0-----------------------------\\--0-------------------------------------------|

[Bridge]
E|---------------------------------|
B|---------------------------------|
G|---------------------------------|
D|-0--0----------------------------|
A|-0--0----------------------------|
E|-0--0--3-0-0-5-0-8-0-0-7-7-7-7-7-| x9

E|----------------------------------------------|
B|----------------------------------------------|
G|----------------------------------------------|
D|-0--0------------------7--7-----7-------------|
A|-0--0------------------7--7-----7------12\\\--|
E|-0--0--3-0-0-5-0-8-0-0-7--7-x16-7-x16--12\\\--|
                          Pm____
[Chorus 2]

Riff 1 x2

E|----|
B|----|
G|----|
D|-0--|
A|-0--|
E|-0--|



************************************

| \  Slide down
| b  Bend
| x  Dead note
| /  Slide up
  
Outros vídeos desta música
    16 exibições
      • ½ Tom
      • Am
      • Bbm
      • Bm
      • Cm
      • C#m
      • Dm
      • Ebm
      • Em
      • Fm
      • F#m
      • Gm
      • G#m
    • Adicionar à lista

    Afinação da cifra

    Afinador online

      0 comentários

      Ver todos os comentários

      Entre para o Cifra Club PRO

      Tenha acesso a benefícios exclusivos no App e no Site

      • Chega de anúncios

      • Badges exclusivas

      • Mais recursos no app do Afinador

      • Atendimento Prioritário

      • Aumente seu limite de lista

      • Ajude a produzir mais conteúdo

      Cifra Club Pro

      Aproveite o Cifra Club com benefícios exclusivos e sem anúncios
      Cifra Club Pro
      Aproveite o Cifra Club com benefícios exclusivos e sem anúncios
      OK