Cifra Club

Aprenda

Miles Away

Goldfinger

Cifra: Principal (violão e guitarra)
tom: B
        VERSE
    B  E  F# B   
E|--2--0--2--2
B|--4--0--2--4
G|--4--1--3--4
D|--4--2--4--4
A|--2--2--4--2
E|-----0--2---
        CHORUS
    B  C#m E  B
E|--2--4---7--7
B|--4--5---9--7
G|--4--6---9--8
D|--4--6---9--9
A|--2--4---7--9
E|------------7
        SOLO (If it is hard to play both notes just play one)
E|---------------------------------------------------------------
B|---------------------------------------------------------------
G|---------------------------------------------------------------
D|--13-13-11-9-9---13-13-11-9-11-6-9---6-6-6-6-4-4-4---4-4-4-11-9
A|---------------------------------------------------------------
E|--11-11-9--7-7---11-11-9--7-9--4-7---4-4-4-4-2-2-2---2-2-2-9-7-
        VERSE
How bad does this hurt? (I think this is right.  If I am wrong, tell me)

                        E|-------
                        B|-------
                        G|--16-15
                        D|--16-15
                        A|--14-13
                        E|-------
CHORUS
NO WORDS PART = CHORUS chords
2nd time play this
E|--------------------
B|--4---2-4-5---9---12
G|--------------------
D|--------------------
A|--------------------
E|--------------------
CHORUS/OUTRO
Composição de John Feldmann
Colaboração e revisão:
  • lucas serra
3.152 exibições
    • ½ Tom
    • A
    • Bb
    • B
    • C
    • Db
    • D
    • Eb
    • E
    • F
    • F#
    • G
    • Ab
  • Adicionar à lista

    0 comentários

    Ver todos os comentários

    Conseguiu tocar?

    0 Tocaram 0 Ainda não

    Grave um vídeo tocando Miles Away e nos envie!

    00:00 / 00:00
    outros vídeos desta música
    repetir qualidade Automático
    Outros vídeos desta música
    00:00 / 00:00
    Automático

    Cifra Club Pro

    Aproveite o Cifra Club com benefícios exclusivos e sem anúncios
    Cifra Club Pro
    Aproveite o Cifra Club com benefícios exclusivos e sem anúncios
    OK