Cifra Club

Aprenda

Pick a Fight

Goldfinger

Cifra: Principal (violão e guitarra)
tom: E
Intro:
PM      I can't be happy without you...
------------------------------------------------
------------------------------------------------
-----------------4-4-4-4-4-4-4------------------
-2-2-2-2-2-2-2-2-4-4-4-4-4-4-4-2-4-4-4-4-4-4-4-4
-2-2-2-2-2-2-2-2-2-2-2-2-2-2-2-2-4-4-4-4-4-4-4-4
-0-0-0-0-0-0-0-0---------------0-2-2-2-2-2-2-2-2

---------------------------------------------------------
---------------------------------------------------------
-7-7-7-7-7-7-7-7-9-9-9-9-9-9-9-14-11-11-11-11-11-11-11-11
-7-7-7-7-7-7-7-7-9-9-9-9-9-9-9-14-11-11-11-11-11-11-11-11
-5-5-5-5-5-5-5-5-7-7-7-7-7-7-7-12--9--9--9--9--9--9--9--9
--------------------------------------------------------- 

------------------------------------------------
------------------------------------------------
-14-14-14-14-14-14-14-14-14-14-14-14-14-14-14-14
-14-14-14-14-14-14-14-14-14-14-14-14-14-14-14-14
-12-12-12-12-12-12-12-12-12-12-12-12-12-12-12-12
------------------------------------------------

Intro Part 2/Chorus
PM
------------------------------------------------
------------------------------------------------
-----------------4-4-4-4-4-4-4-4----------------
-2-2-2-2-2-2-2-2-4-4-4-4-4-4-4-4-4-4-4-4-4-4-4-4
-2-2-2-2-2-2-2-2-2-2-2-2-2-2-2-2-4-4-4-4-4-4-4-4
-0-0-0-0-0-0-0-0-----------------2-2-2-2-2-2-2-2

--------------------------------------------------------
--------------------------------------------------------
-7-7-7-7-7-7-7-7-9-9-9-9-9-9-9-9-11-11-11-11-11-11-11-11
-7-7-7-7-7-7-7-7-9-9-9-9-9-9-9-9-11-11-11-11-11-11-11-11
-5-5-5-5-5-5-5-5-7-7-7-7-7-7-7-7--9--9--9--9--9--9--9--9
--------------------------------------------------------- 

------------------------------------------------
------------------------------------------------
-14-14-14-14-14-14-14-14-14-14-14-14-14-14-14-14
-14-14-14-14-14-14-14-14-14-14-14-14-14-14-14-14
-12-12-12-12-12-12-12-12-12-12-12-12-12-12-12-12
------------------------------------------------
During Intro hit note once and let ring

Intro Part 3
--------------------------
--------------------------
-4-4-4-4------------------
-4-4-4-4-4-x-7-7-7-6-2-2-2
-2-2-2-2-4-x-7-7-7-6-2-2-2
---------2-x-5-5-5-4-0-0-0
Repeat 6x

Intro Part 4
After Guitar 1 Plays Intro Part 3 4x, Guitar 2 Plays:
-------5-----------------5---7
-0-7-0---0-7-0-7-0-0-7-0---0--
------------------------------
------------------------------
------------------------------
------------------------------

Verse:
You say that im the only one...
----------------------------------------------------------------
----------------------------------------------------------------
-9-9-9-9---------6-6-6-6----------------------------------------
-9-9-9-9-9-9-9-9-6-6-6-6-6-6-6-6-7-7-7-7-7-7-7-7-9-9-9-9-9-9-9-9
-7-7-7-7-9-9-9-9-4-4-4-4-6-6-6-6-7-7-7-7-7-7-7-7-9-9-9-9-9-9-9-9
---------7-7-7-7---------4-4-4-4-5-5-5-5-5-5-5-5-7-7-7-7-7-7-7-7
Repeat 2x

Prechorus:
But I know that you had the best intentions...
----------------------------------------------
----------------------------------------------
-----------------------9-9-9-9-9-x-6-6-6-6-6-x
-7-7-7-7-7-9-9-9-9-9-x-9-9-9-9-9-x-6-6-6-6-6-x
-7-7-7-7-7-9-9-9-9-9-x-7-7-7-7-7-x-4-4-4-4-4-x
-5-5-5-5-5-7-7-7-7-7-x------------------------

----------------------------------------
----------------------------------------
----------------------------------------
-7-7-7-7-7-x-9-9-9-9-9-2-2-2-2-2-2-2-2-2
-7-7-7-7-7-x-9-9-9-9-9-2-2-2-2-2-2-2-2-2
-5-5-5-5-5-x-7-7-7-7-7-0-0-0-0-0-0-0-0-0

Then play Chorus 2x

Then Guitar One Plays:
----------------
----------------
-4-------------4
-4-------------4
-2-------------2
----------------
Let Ring

Then:
Guitar 1:
--------------------------
--------------------------
-4-4-4-4------------------
-4-4-4-4-4-x-7-7-7-6-2-2-2
-2-2-2-2-4-x-7-7-7-6-2-2-2
---------2-x-5-5-5-4-0-0-0
Repeat 2x Quietly While Guitar 2 Plays:

-------5-----------------5---7
-0-7-0---0-7-0-7-0-0-7-0---0--
------------------------------
------------------------------
------------------------------
------------------------------

Then back to the verse again. The first time through hit only the first note, then the second time play:
----------------------------------------------------------
----------------------------------------------------------
-9-9-----------------6-6----------------------------------
-9-9-------9-9-------6-6-------6-6-7-7-7-7-7-7-7-7-7-7-7-7
-7-7-------9-9-------4-4-------6-6-7-7-7-7-7-7-7-7-7-7-7-7
-----------7-7-----------------4-4-5-5-5-5-5-5-5-5-5-5-5-5

PM
--------------------------------
--------------------------------
--------------------------------
-9-9-9-9-9-9-9-9-9-9-9-9-9-9-9-9
-9-9-9-9-9-9-9-9-9-9-9-9-9-9-9-9
-7-7-7-7-7-7-7-7-7-7-7-7-7-7-7-7

Then play the prechorus again, but It's slighly different.
Prechorus:
But I know that you had the best intentions...
----------------------------------------------
----------------------------------------------
-----------------------9-9-9-9-9-x-6-6-6-6-6-x
-7-7-7-7-7-9-9-9-9-9-x-9-9-9-9-9-x-6-6-6-6-6-x
-7-7-7-7-7-9-9-9-9-9-x-7-7-7-7-7-x-4-4-4-4-4-x
-5-5-5-5-5-7-7-7-7-7-x------------------------

----------------------------------------------------------
----------------------------------------------------------
----------------------------------------------------------
-7-7-7-7-7-x-9-9-9-9-9-4-4-4-4-4-4-4-4-4-4-4-4-4-4-4-4-4-4
-7-7-7-7-7-x-9-9-9-9-9-4-4-4-4-4-4-4-4-4-4-4-4-4-4-4-4-4-4
-5-5-5-5-5-x-7-7-7-7-7-2-2-2-2-2-2-2-2-2-2-2-2-2-2-2-2-2-2

Then turn off your distortion and play:
-0-0-0-----2-2-2-----0-0-0-2-2-2-0-0-0
-0-0-0-4-4-2-2-2-7-7-0-0-0-2-2-2-2-2-2
-1-1-1-4-4-3-3-3-7-7-1-1-1-3-3-3-2-2-2
-2-2-2-4-4-4-4-4-7-7-2-2-2-4-4-4-2-2-2
-2-2-2-2-2-4-4-4-5-5-2-2-2-4-4-4-0-0-0
-0-0-0-----2-2-2-----0-0-0-2-2-2------
Repeat 4x, Then Play:

------------------------------------------------
------------------------------------------------
-----------------4-4-4-4-4-4-4-4----------------
-2-2-2-2-2-2-2-2-4-4-4-4-4-4-4-4-4-4-4-4-4-4-4-4
-2-2-2-2-2-2-2-2-2-2-2-2-2-2-2-2-4-4-4-4-4-4-4-4
-0-0-0-0-0-0-0-0-----------------2-2-2-2-2-2-2-2

--------------------------------------------------------
--------------------------------------------------------
-7-7-7-7-7-7-7-7-9-9-9-9-9-9-9-9-11-11-11-11-11-11-11-11
-7-7-7-7-7-7-7-7-9-9-9-9-9-9-9-9-11-11-11-11-11-11-11-11
-5-5-5-5-5-5-5-5-7-7-7-7-7-7-7-7--9--9--9--9--9--9--9--9
-------------------------------------------------------- 
  1st Time Play:       2x Play:
|--------------------|--                            -----------------------
|--------------------|--                            -----------------------
|-x-14-x-14-x-14-x-14|14                            -14-x-14-x-14-14-x-14-2
|-x-14-x-14-x-14-x-14|14~A lot of times then:-14-x-14-x-14-14-x-14-2
|-x-12-x-12-x-12-x-12|12                            -12-x-12-x-12-12-x-12-0
|--------------------|--                            -----------------------
Composição de John Feldmann
Colaboração e revisão:
  • Leandro Leal
1.996 exibições
    • ½ Tom
    • A
    • Bb
    • B
    • C
    • Db
    • D
    • Eb
    • E
    • F
    • F#
    • G
    • Ab
  • Adicionar à lista

    0 comentários

    Ver todos os comentários

    Conseguiu tocar?

    0 Tocaram 0 Ainda não

    Grave um vídeo tocando Pick a Fight e nos envie!

    00:00 / 00:00
    outros vídeos desta música
    repetir qualidade Automático
    Outros vídeos desta música
    00:00 / 00:00
    Automático

    Cifra Club Pro

    Aproveite o Cifra Club com benefícios exclusivos e sem anúncios
    Cifra Club Pro
    Aproveite o Cifra Club com benefícios exclusivos e sem anúncios
    OK