Cifra Club

Truckin

Grateful Dead

Cifra: Principal (violão e guitarra)
tom: A

          --arranged for solo acoustic guitar accompaniment--

Ill try to show the spacing as best as I can but you might have to use your brain just a little...


/=slide up(up as in higher notes)
\=slide down
~=vabrado
p=pull off
u=bend(1/4)
p.m.=palm mute
>=upstroke

Intro
                                        ~~~~~~~~~~~~~~~~~~~~~~~~~~

e|-----10----10----10----10----10----10----10----10----10----10------------|
b|-/12----12----12----12----12----12----12----12----12----12----12-12\10p8-|
g|-------------------------------------------------------------------------|
d|-------------------------------------------------------------------------|
a|-------------------------------------------------------------------------|
e|-------------------------------------------------------------------------|

e|-----------------------------|
b|-----------------------------|
g|-9\-----    > > > >                              ~~~~~~~~ ~~~~~         ~~~~~~~~
e|-----------|---------------------------|----------------------------------|
b|-----------|-2---2---2---2---2--2---2--|----------------------------------|
g|-----------|-2---2---2---2---2--2---2--|----------------------------------|
d|-----------|-2---2---2---2---2--2---2--|----------------------------------|
a|-----------|-x---x---x---x---x--x---x--|----------------------------------|
e|-0-1-2-3-4-|-5---5---5---5---5--5---5--|-5-------3-----0--2-0-2-3h5-------|

e|-----------------|--------------------|-2--2--2--2-|-2-2-2-2-2-2-2-2-2-|
b|-2--2--2--2-x--3-|-3--3--3--3-x--3--3-|-2--2--2--2-|-2-2-2-2-2-2-2-2-2-|
g|-2--2--2--2-x--2-|-2--2--2--2-x--4--4-|-3--3--3--3-|-3-3-3-3-3-3-3-3-3-|
d|-2--2--2--2-x--4-|-4--4--4--4-x--4--4-|-4--4--4--4-|-4-4-4-4-4-4-4-4-4-|
a|-x--x--x--x-x--5-|-5--5--5--5-x--2--2-|-4--4--4--4-|-4-4-4-4-4-4-4-4-4-|
e|-5--5--5--5------|--------------------|-2--2--2--2-|-2-2-2-2-2-2-2-2-2-|

e|-2-2-2-|-5-5-5-5-5-5-5-5-5-5-5-5-|
b|-2-2-2-|-5-5-5-5-5-5-5-5-5-5-5-5-|
g|-3-3-3-|-6-6-6-6-6-6-6-6-6-6-6-6-|
d|-4-4-4-|-7-7-7-7-7-7-7-7-7-7-7-7-|
a|-4-4-4-|-7-7-7-7-7-7-7-7-7-7-7-7-|
e|-2-2-2-|-5-5-5-5-5-5-5-5-5-5-5-5-|



00:00 / 00:00
Outros vídeos desta música
Repetir
Outros vídeos desta música
Composição de Bob Weir / Félix Leclerc / Phil Lesh / Robert Hunter
1.488 exibições
    • ½ Tom
    • A
    • Bb
    • B
    • C
    • Db
    • D
    • Eb
    • E
    • F
    • F#
    • G
    • Ab
  • Adicionar à lista

    0 comentários

    Ver todos os comentários

    Conseguiu tocar?

    1 Tocaram 0 Ainda não

    Grave um vídeo tocando Truckin e nos envie!

    Entre para oCifra Club PRO

    Tenha acesso a benefícios exclusivos no App e no Site

    • Chega de anúncios

    • Prioridade de compra em lançamentos

    • Mais recursos no app do Afinador

    • Atendimento Prioritário

    • Descontos nos produtos Cifra Club

    • Ajude a produzir mais conteúdo

    00:00 / 00:00

    Cifra Club Pro

    Aproveite o Cifra Club com benefícios exclusivos e sem anúncios
    Cifra Club Pro
    Aproveite o Cifra Club com benefícios exclusivos e sem anúncios
    OK