Cifra Club

Aprenda

Culloden Muir

Grave Digger

Cifra: Principal (violão e guitarra)
tom: D
 Transcribed by Teemu Haapanen


  
 
  Intro
 |--------------------------------------------------------|-------------------------------------------|
 |--------------------------------------------------------|-------------------------------------------|
 |--------------------------------------------------------|-------------------------------------------|
 |-7------8------7------5------7------8------7------5-5-5-|-7------8------7------5------7------8------|
 |-5-5555-6-6666-5-5555-3-3333-5-5555-6-6666-5-5555-3-3-3-|-5-5555-6-6666-5-5555-3-3333-5-5555-6-6666-|
 |--------------------------------------------------------|-------------------------------------------|
     p.m.   p.m.   p.m.   p.m.   p.m.   p.m.   p.m.           p.m.   p.m.   p.m.   p.m.   p.m.   p.m.


  1st time   2nd time Riff 1 (3x)
 |------------|-----|-----------------------------------------------------------------------------|
 |------------|-----|-----------------------------------------------------------------------------|
 |------------|-----|-----------------------------------------------------------------------------|
 |-7------5-5-|--7--|-----------------------------------------------------------------------------|
 |-5-5555-3-3-|--5--|-----------4-------------------5-------------------4---------4-4-2-----------|
 |------------|-----|-0h2-22222----222222-0h2-22222----222222-0h2-22222----222222-2-2-0-0000-0000-|
     p.m.                 p.m..    p.m...     p.m..    p.m...     p.m..    p.m...       p.m......


  Verse riff 1
 |----------------------------------------------------------------------------------------|
 |----------------0-0----------------------------------------0-0--------------------------|
 |--------------2------------------------------------------2------------------------------|
 |-2--3-2-(2)-3--------2--3-2-(2)-------------2--3-2-(2)-3--------2--3-2-(2)--------------|
 |-0--0-0-(0)----------0--0-0-(0)-5-5---3--3--0--0-0-(0)----------0--0-0-(0)-5-------3--3-|
 |--------------------------------3-3-0-1--1---------------------------------3-33-31-1--1-|
                                      .                                        p.m..
            
     
  Verse riff 2 (2x)       Verse riff 3                                
 |-----------------------|-------------------------------------------|
 |*---------------------*|----------------0-0------------------------|
 |-----------------------|--------------2----------------------------|
 |------4--2-4-----5--5--|-2--3-2-(2)-3--------2--3-2-(2)------------|
 |*-2-2-2--0-2-2-2-3--3-*|-0--0-0-(0)----------0--0-0-(0)-5-5---3--3-|
 |-----------------------|--------------------------------3-3-0-1--1-|
    p.m      p.m..                                            .  
 

  Chorus (2x)
 |-----------------------------------------|-----------------------------------------|
 |*----------------------------------------|----------------------------------------*|
 |-----------------------------------------|-----------------------------------------|
 |--7----8----7----5----7----8----7----5-5-|-7----8----7----5----7----8----7----5-5--|
 |*-5-55-6-66-5-55-3-33-5-55-6-66-5-55-3-3-|-5-55-6-66-5-55-3-33-5-55-6-66-5-55-3-3-*|
 |-----------------------------------------|-----------------------------------------|
      p.m  ..   ..   ..   ..   ..   ..         ..   ..   ..   ..   ..   ..   ..   

  Riff 1

  Verse riff 1

  Verse riff 2 (2x)
  
  Verse riff 3

  Chorus (2x)
  
 |-------------|
 |-------------|
 |-------------|
 |-------------|
 |-4-(4)-slide-|
 |-2-(2)-------|


  Drum solo

  Verse riff 1

  Verse riff 2 (2x)

  Chorus (2x)

  Then
 |----------------------------------------|----------------------------------------|
 |----------------------------------------|----------------------------------------|
 |----------------------------------------|----------------------------------------|
 |-8----9----8----7----8----9----8----7-7-|-9---10----9----7----9---10----9----7-7-|
 |-6-66-7-77-6-66-5-55-6-66-7-77-6-66-5-5-|-7-77-8-88-7-77-5-55-7-77-8-88-7-77-5-5-|
 |----------------------------------------|----------------------------------------|
     p.m  ..   ..   ..   ..   ..   ..         ..   ..   ..   ..   ..   ..   ..


  Outro riff
 |------------------------------------------------|------------------------------------------------|
 |------------------------------------------------|------------------------------------------------|
 |------------------------------------------------|------------------------------------------------|
 |------------------------------------------------|------------------------------------------------|
 |-2------------------4-5--2------------------5-4-|-2------------------4-5--2------------------5-4-|
 |-0-00-2p0-00-2p0-00-2-3--0-00-2p0-00-2p0-00-3-2-|-0-00-2p0-00-2p0-00-2-3--0-00-2p0-00-2p0-00-3-2-|
     p.m    ..     ..        ..     ..     ..         ..     ..     ..        ..     ..     ..


 |-------------------|
 |-------------------|
 |-------------------|
 |-------------------|
 |-----------------2-|
 |-00-00-00-00-0-0-0-|
   p.m............





  p.m = palm mute
  (2) = ghost note
    p = pull off
    h = hammer on
Composição de Grave Digger
1.729 exibições
    • ½ Tom
    • A
    • Bb
    • B
    • C
    • Db
    • D
    • Eb
    • E
    • F
    • F#
    • G
    • Ab
  • Adicionar à lista

    0 comentários

    Ver todos os comentários

    Conseguiu tocar?

    0 Tocaram 0 Ainda não

    Grave um vídeo tocando Culloden Muir e nos envie!

    00:00 / 00:00
    Outros vídeos desta música
    Repetir Qualidade Automático
    Outros vídeos desta música
    00:00 / 00:00
    Automático

    Cifra Club Pro

    Aproveite o Cifra Club com benefícios exclusivos e sem anúncios
    Cifra Club Pro
    Aproveite o Cifra Club com benefícios exclusivos e sem anúncios
    OK