Cifra Club

Highway Tune

Greta Van Fleet

Cifra: Principal (violão e guitarra)
Tom: E
[Intro]

E|-----------------------------|-------------------------|
B|-----------------------------|-------------------------|
G|-----------------------------|-------------------------|
D|-----2--4b--2------2---------|---2-----2-----0---------|
A|---------------4b------------|-------------------------|
E|--0-------------------4b--0--|-----4-----3-----2b--0---|
 |
E|-----------------------------|-------------------------|
B|-----------------------------|-------------------------|
G|-----------------------------|-------------------------|
D|-----2--4b--2------2---------|---2-----2-----0---------|
A|---------------4b------------|-------------------------|
E|----------------------4b--0--|-----4-----3-----2b--0---|
 |
E|-----------------------------|-------------------------|
B|-----------------------------|-------------------------|
G|-----------------------------|-------------------------|
D|-----2--4b--2------2---------|---2-----2-----0---------|
A|---------------4b------------|-------------------------|
E|----------------------4b--0--|-----4-----3-----2b--0---|
 |
E|-----------------------------|------0--------0------------|
B|-----------------------------|----------------------------|
G|-----------------------------|---/4-----4--3-----2p0------|
D|-----2--4b--2------2---------|-----------------------2p0--|
A|---------------4b------------|----------------------------|
E|----------------------4b--0--|----------------------------|

E|-----------------------------|-------------------------|
B|-----------------------------|-------------------------|
G|-----------------------------|-------------------------|
D|-----2--4b--2------2---------|---2-----2-----0---------|
A|---------------4b------------|-------------------------|
E|--0-------------------4b--0--|-----4-----3-----2b--0---|
 |
E|-----------------------------|-------------------------|
B|-----------------------------|-------------------------|
G|-----------------------------|-------------------------|
D|-----2--4b--2------2---------|---2-----2-----0---------|
A|---------------4b------------|-------------------------|
E|----------------------4b--0--|-----4-----3-----2b--0---|

E G
Oooooohhhhhhhh mama

[Verso]

E|-----------------------------|-------------------------|
B|-----------------------------|-------------------------|
G|-----------------------------|-------------------------|
D|-----2--4b--2------2---------|---2-----2-----0---------|
A|---------------4b------------|-------------------------|
E|--0-------------------4b--0--|-----4-----3-----2b--0---|
 |
E|-----------------------------|-------------------------|
B|-----------------------------|-------------------------|
G|-----------------------------|-------------------------|
D|-----2--4b--2------2---------|---2-----2-----0---------|
A|---------------4b------------|-------------------------|
E|----------------------4b--0--|-----4-----3-----2b--0---|

E
No stoppin' at the red light girl
              G
Cause I wanna get your signal
E
No goin' at the green light girl
              G
Cause I wanna be with you now
E
You are my special
           G
You are my special
E
You are my midnight, midnight yeah

[Refrão]

E|--5------5-------5---5--|
B|--5------5-------5---5--|
G|--6h7p6--6h7p6---6---6--|
D|--7------7-------7---7--|
A|------------------------|
E|------------------------|

E|--7------7-------7---7--|
B|--7h9p7--7-------7---7--|
G|--8------8h9p8---8---8--|
D|--9------9-------9---9--|
A|------------------------|
E|------------------------|

E|--7------7-------7------7------|
B|--7h9p7--7-------7h9p7--7------|
G|--8------8h9p8---8------8h9p8--|
D|--9------9-------9------9------|
A|-------------------------------|
E|-------------------------------|

A
So sweet, so fine
            B
So nice, oh my
B
My my, my my
        G E
Ooohhhhh

( E  G  E  G )
( E  G  E  G )

[Verso]
E|-----------------------------|-------------------------|
B|-----------------------------|-------------------------|
G|-----------------------------|-------------------------|
D|-----2--4b--2------2---------|---2-----2-----0---------|
A|---------------4b------------|-------------------------|
E|--0-------------------4b--0--|-----4-----3-----2b--0---|
 |
E|-----------------------------|-------------------------|
B|-----------------------------|-------------------------|
G|-----------------------------|-------------------------|
D|-----2--4b--2------2---------|---2-----2-----0---------|
A|---------------4b------------|-------------------------|
E|----------------------4b--0--|-----4-----3-----2b--0---|

E|-----------------------------|-------------------------|
B|-----------------------------|-------------------------|
G|-----------------------------|-------------------------|
D|-----2--4b--2------2---------|---2-----2-----0---------|
A|---------------4b------------|-------------------------|
E|--0-------------------4b--0--|-----4-----3-----2b--0---|
 |
E|-----------------------------|-------------------------|
B|-----------------------------|-------------------------|
G|-----------------------------|-------------------------|
D|-----2--4b--2------2---------|---2-----2-----0---------|
A|---------------4b------------|-------------------------|
E|----------------------4b--0--|-----4-----3-----2b--0---|

E
No stoppin' on the highway girl
              G
Cause I wanna burn my gas
E
There's one girl that I know
          G
I'm never gonna pass
E
She is my special
          G
She is my special
E
She is my midnight, midnight yeah

[Refrão]

E|--5------5-------5---5--|
B|--5------5-------5---5--|
G|--6h7p6--6h7p6---6---6--|
D|--7------7-------7---7--|
A|------------------------|
E|------------------------|

E|--7------7-------7---7--|
B|--7h9p7--7-------7---7--|
G|--8------8h9p8---8---8--|
D|--9------9-------9---9--|
A|------------------------|
E|------------------------|

E|--7------7-------7------7------|
B|--7h9p7--7-------7h9p7--7------|
G|--8------8h9p8---8------8h9p8--|
D|--9------9-------9------9------|
A|-------------------------------|
E|-------------------------------|

A
So sweet, so fine
            B
So nice, oh my
B
My my, my my
        G E
Ooohhhhh

[Solo] E  G  E  G
       E  G  E  G

E|-----------------------------------------|-----------12-------------------------------------------------|
B|--12---12---12---12---12-----------------|-------12------15p12------------------------------------------|
G|--14b--14b--14b--14b--14b---14br--12-----|--/14-----------------14br-12-14br-12------14br-12-14br-12----|
D|-------------------------------------14~-|---------------------------------------14------------------14-|
A|-----------------------------------------|--------------------------------------------------------------|
E|-----------------------------------------|--------------------------------------------------------------|

E|------------------------|----------------------------------------|
B|-------15--15-----15~---|-------15-------------------------------|
G|--/16----------16-------|--14b-----14br-12------12b~--14br12-----|
D|------------------------|-------------------14---------------14--|
A|------------------------|----------------------------------------|
E|------------------------|----------------------------------------|

E|-------12----------------------------|---------------12--15p12----15p12----15p12--15-15-15~--|
B|-----------15p12---------------------|--------12h15------------12-------12-------------------|
G|--14b-------------14--14p12------12~-|--12h14------------------------------------------------|
D|-----------------------------14------|-------------------------------------------------------|
A|-------------------------------------|-------------------------------------------------------|
E|-------------------------------------|-------------------------------------------------------|

E G
Oooooohhhhhhhh yeah

[Refrão]

E|--5------5-------5---5--|
B|--5------5-------5---5--|
G|--6h7p6--6h7p6---6---6--|
D|--7------7-------7---7--|
A|------------------------|
E|------------------------|

E|--7------7-------7---7--|
B|--7h9p7--7-------7---7--|
G|--8------8h9p8---8---8--|
D|--9------9-------9---9--|
A|------------------------|
E|------------------------|

E|--7------7-------7------7------|
B|--7h9p7--7-------7h9p7--7------|
G|--8------8h9p8---8------8h9p8--|
D|--9------9-------9------9------|
A|-------------------------------|
E|-------------------------------|

A
So sweet, so fine
            B
So nice, oh my
B
My my, my my
B
Ooohhhhh
        E
Ooohhhhh sugar

[Final]

E|--------|
B|--------|
G|--------|
D|--5b6~--|
A|--------|
E|--------|
exibições 4.555
Acordes para:
    Colaboração e revisão:
    • Taino Vieira
    • Geisa Amaral

    0 comentários

    mostrar mais comentários

    Conseguiu tocar?

    6 tocaram 0 ainda não

    Grave um vídeo tocando Highway Tune e mande pra gente!

    00:00 / 00:00
    outros vídeos desta música
    repetir qualidade Automático
    Outros vídeos desta música
    00:00 / 00:00
    Automático
    OK