Highway Tune

Greta Van Fleet

Composição de: Daniel Robert Wagner / Jacob Thomas Kiszka / Joshua Michael Kiszka / Samuel Francis Kiszka
tom: E
[Intro]

E|------------------------------------------------------|
B|------------------------------------------------------|
G|------------------------------------------------------|
D|-----2--5--2------2-------------2-----2-----0---------|
A|---------------5--------------------------------------|
E|--0-------------------4b--0-------4-----3-----2b--0---|
 |
E|------------------------------------------------------|
B|------------------------------------------------------|
G|------------------------------------------------------|
D|-----2--5--2------2-------------2-----2-----0---------|
A|---------------5--------------------------------------|
E|----------------------4b--0-------4-----3-----2b--0---|
 |
E|------------------------------------------------------|
B|------------------------------------------------------|
G|------------------------------------------------------|
D|-----2--5--2------2-------------2-----2-----0---------|
A|---------------5--------------------------------------|
E|----------------------4b--0-------4-----3-----2b--0---|
 |
E|-----------------------------------0--------0------------|
B|---------------------------------------------------------|
G|--------------------------------/4-----4--3-----2p0------|
D|-----2--5--2------2---------------------------------2p0--|
A|---------------5-----------------------------------------|
E|----------------------4b--0------------------------------|

E|------------------------------------------------------|
B|------------------------------------------------------|
G|------------------------------------------------------|
D|-----2--5--2------2-------------2-----2-----0---------|
A|---------------5--------------------------------------|
E|--0-------------------4b--0-------4-----3-----2b--0---|
 |
E|------------------------------------------------------|
B|------------------------------------------------------|
G|------------------------------------------------------|
D|-----2--5--2------2-------------2-----2-----0---------|
A|---------------5--------------------------------------|
E|----------------------4b--0-------4-----3-----2b--0---|

Oooooohhhhhhhh mama

[Verso]

E|------------------------------------------------------|
B|------------------------------------------------------|
G|------------------------------------------------------|
D|-----2--5--2------2-------------2-----2-----0---------|
A|---------------5--------------------------------------|
E|--0-------------------4b--0-------4-----3-----2b--0---|
 |
E|------------------------------------------------------|
B|------------------------------------------------------|
G|------------------------------------------------------|
D|-----2--5--2------2-------------2-----2-----0---------|
A|---------------5--------------------------------------|
E|----------------------4b--0-------4-----3-----2b--0---|

No stoppin' at the red light girl
              
Cause I wanna get your signal

No goin' at the green light girl
              
Cause I wanna be with you now

You are my special
           
You are my special

You are my midnight, midnight yeah

[Refrão]

E|--5------5-------5---5--|
B|--5------5-------5---5--|
G|--6h7p6--6h7p6---6---6--|
D|--7------7-------7---7--|
A|------------------------|
E|------------------------|

E|--7------7-------7---7--|
B|--7h9p7--7-------7---7--|
G|--8------8h9p8---8---8--|
D|--9------9-------9---9--|
A|------------------------|
E|------------------------|

E|--7------7-------7------7------|
B|--7h9p7--7-------7h9p7--7------|
G|--8------8h9p8---8------8h9p8--|
D|--9------9-------9------9------|
A|-------------------------------|
E|-------------------------------|

A
So sweet, so fine
            B
So nice, oh my
B
My my, my my
       
Ooohhhhh

Riff Principal

[Verso]

E|------------------------------------------------------|
B|------------------------------------------------------|
G|------------------------------------------------------|
D|-----2--5--2------2-------------2-----2-----0---------|
A|---------------5--------------------------------------|
E|--0-------------------4b--0-------4-----3-----2b--0---|
 |
E|------------------------------------------------------|
B|------------------------------------------------------|
G|------------------------------------------------------|
D|-----2--5-2------2--------------2-----2-----0---------|
A|---------------5--------------------------------------|
E|----------------------4b--0-------4-----3-----2b--0---|

E|------------------------------------------------------|
B|------------------------------------------------------|
G|------------------------------------------------------|
D|-----2--5--2------2-------------2-----2-----0---------|
A|---------------5--------------------------------------|
E|--0-------------------4b--0-------4-----3-----2b--0---|
 |
E|------------------------------------------------------|
B|------------------------------------------------------|
G|------------------------------------------------------|
D|-----2--5--2------2-------------2-----2-----0---------|
A|---------------5--------------------------------------|
E|----------------------4b--0-------4-----3-----2b--0---|

No stoppin' on the highway girl
              
Cause I wanna burn my gas

There's one girl that I know
          
I'm never gonna pass

She is my special
          
She is my special

She is my midnight, midnight yeah

[Refrão]

E|--5------5-------5---5--|
B|--5------5-------5---5--|
G|--6h7p6--6h7p6---6---6--|
D|--7------7-------7---7--|
A|------------------------|
E|------------------------|

E|--7------7-------7---7--|
B|--7h9p7--7-------7---7--|
G|--8------8h9p8---8---8--|
D|--9------9-------9---9--|
A|------------------------|
E|------------------------|

E|--7------7-------7------7------|
B|--7h9p7--7-------7h9p7--7------|
G|--8------8h9p8---8------8h9p8--|
D|--9------9-------9------9------|
A|-------------------------------|
E|-------------------------------|

A
So sweet, so fine
            B
So nice, oh my
B
My my, my my
        
Ooohhhhh

[Solo] E  G  E  G
       E  G  E  G

E|----------------------------------------------------12-------------------------------------------------|
B|--12---12---12---12---12------------------------12------15p12------------------------------------------|
G|--14b--14b--14b--14b--14b---14br--12-------/14-----------------14br-12-14br-12------14br-12-14br-12----|
D|-------------------------------------14~----------------------------------------14------------------14-|
A|-------------------------------------------------------------------------------------------------------|
E|-------------------------------------------------------------------------------------------------------|

E|----------------------------------------------------------------|
B|-------15--15-----15~----------15-------------------------------|
G|--/16----------16---------14b-----14br-12------12b~--14br12-----|
D|-------------------------------------------14---------------14--|
A|----------------------------------------------------------------|
E|----------------------------------------------------------------|

E|-------12-------------------------------------------12--15p12----15p12----15p12--15-15-15~--|
B|-----------15p12-----------------------------12h15------------12-------12-------------------|
G|--14b-------------14--14p12------12~---12h14------------------------------------------------|
D|-----------------------------14-------------------------------------------------------------|
A|--------------------------------------------------------------------------------------------|
E|--------------------------------------------------------------------------------------------|

Oooooohhhhhhhh yeah

[Refrão]

E|--5------5-------5---5--|
B|--5------5-------5---5--|
G|--6h7p6--6h7p6---6---6--|
D|--7------7-------7---7--|
A|------------------------|
E|------------------------|

E|--7------7-------7---7--|
B|--7h9p7--7-------7---7--|
G|--8------8h9p8---8---8--|
D|--9------9-------9---9--|
A|------------------------|
E|------------------------|

E|--7------7-------7------7------|
B|--7h9p7--7-------7h9p7--7------|
G|--8------8h9p8---8------8h9p8--|
D|--9------9-------9------9------|
A|-------------------------------|
E|-------------------------------|

A
So sweet, so fine
            B
So nice, oh my
B
My my, my my
B
Ooohhhhh
        
Ooohhhhh sugar

[Final]

E|--------|
B|--------|
G|--------|
D|--5b6~--|
A|--------|
E|--------|
Página 1 / 1

Letras e título
Acordes e artista

resetar configurações
OK