Cifra Club

Aprenda

Te vas te vas

Grupo 5

Cifra: Principal (violão e guitarra)
tom: Dm
intro:
1)                      Bb
E|-13-13-13-13-13-12-10-13---10-13-|
B|-------------------------11------|
G|-----------------------10--------|

                        Dm
E|-13-13-13-13-13-12-10-13----10-13-|
B|--------------------------10------|
G|------------------------10--------|

                        A
E|-13-13-13-13-13-12-10-12---9-12--|
B|-------------------------10------|
G|------------------------9--------|

                   Dm
E|-12-12-12-10-9---13-13-13-11-10|
B|-------------------------------|
G|-------------------------------| repetir todo

2)
                     A
E|-13-13-13-13-12-10-9-------|
B|---------------------------|
G|---------------------------|

                  Dm
e|9-12-12-10-9-13-10---------
B|---------------------------|
G|---------------------------|

                          A
E|-10-13-13-13-13-12-10-10-9-|
B|---------------------------|
G|---------------------------|

                Dm
E|-9-9-12-12-12-10-9-10------|
B|---------------------------|
G|---------------------------|

 Dm            Bb
Quién te despertará,
       C             F
con un beso por las mañanas
 Dm            Bb
Dime quién te llevará
   C             F
el desayuno a la cama

 Dm            Bb
Quién te escribirá canciones
       C             F
inspiradas en nuestro amor
     Gm              Dm
Quién regalándote flores
    A                 Dm
te dice la primavera llego

F               C
Yo contigo hice un mundo
Gm           Dm
Donde reinabas tú


Gm           Dm
Y creo fuiste feliz,
C                    Dm
pero eso que quede en ti (bis)


CORO:
  Dm     Bb       Bb       Bb     F
Y hoy te vas, te vas, te vas, te vas
                A
Pero se que por algo
              Dm
me haz de recordar
           Bb
Quizás con el,
              F
me haz de comparar
              A
No creo ser mejor,
                   Dm
fui diferente nada más.(bis coro)
Compositor não encontrado.
1 exibições
    • ½ Tom
    • Am
    • Bbm
    • Bm
    • Cm
    • C#m
    • Dm
    • Ebm
    • Em
    • Fm
    • F#m
    • Gm
    • G#m
  • Adicionar à lista

    0 comentários

    Ver todos os comentários

    Conseguiu tocar?

    0 Tocaram 0 Ainda não

    Grave um vídeo tocando Te vas te vas e nos envie!

    00:00 / 00:00
    Outros vídeos desta música
    Repetir Qualidade Automático
    Outros vídeos desta música
    00:00 / 00:00
    Automático

    Cifra Club Pro

    Aproveite o Cifra Club com benefícios exclusivos e sem anúncios
    Cifra Club Pro
    Aproveite o Cifra Club com benefícios exclusivos e sem anúncios
    OK