Cifra Club

Aprenda

Estranged

Guns N' Roses

Cifra: Versão 7 (violão e guitarra)
Tom: C
G7
When you're talking to yourself
C
And nobody's home
G7
You can fool yourself
C
you came in this world alone...alone.
guitar
E|------------10bv----------13bv--10----------13---------
B|---------11-----------11----------13v--13b----13b--13s-
G|-12b--12----------12-----------------------------------
D|-------------------------------------------------------
A|-------------------------------------------------------
E|-------------------------------------------------------

E|------13bv--------13bv--10---------13--------------------
B|---11----------11---------13v--13b---13br--13p12-13p12---
G|12----------12----------------------------------------12-
D|---------------------------------------------------------
A|---------------------------------------------------------
E|---------------------------------------------------------

Bb5                   C5
So nobody ever told you baby
             G5
How it gonna be
Bb5                    C5
So what'll happen to you baby
                        G5
Guess we'll to wait and see

One, two

E|-------10v---------10v----------------10v---------10v---------------10v--8v--10brb--8------------------
B|-----------------------13p12-13p12-------------------13p12-13p12---------------------11-10-11br-8-8----
G|-----12----------12---------------12------------12--------------12---------------------------------10b-
D|---12-------10-10-------------------12-----10-10------------------12-----------------------------------
A|-10----------------------------------------------------------------------------------------------------
E|-------------------------------------------------------------------------------------------------------

Old at heart but I'm only 28
And I'm much too young to let love break my heart
Young at heart but it's getting much too late
To find ourselves so far apart.

F5                                          G5
I don't know how you're supposed to find me lately
F5                            G5
And what more could you ask from me?
F5                               G5
How could you say that I never needed you
D#5                       G
When you took everything, said you took everything from me

E|-------10v---------10v-----------------10v---------10v-----------------10v--8v--10brb--8------------------
B|------------------------13p12-13p12---------------------13p12-13p12---------------------11-10-11br-8-8----
G|-----12----------12----------------12------------12----------------12---------------------------------12b-
D|---12-------10-10--------------------12-----10-10--------------------12-----------------------------------
A|-10-------------------------------------------------------------------------------------------------------
E|----------------------------------------------------------------------------------------------------------

Young at heart and it gets so hard to wait
When no one I know can seem to help me now
Old at heart but I mustn't hesitate
If I'm to find my own way out

Still talking to yourself
And nobody's home, alone
Composição de Axl Rose
Colaboração e revisão:
  • Jefferson Sousa
1.806 exibições
  • Simplificar cifra
    • ½ Tom
    • A
    • Bb
    • B
    • C
    • Db
    • D
    • Eb
    • E
    • F
    • F#
    • G
    • Ab
  • Adicionar à lista

    0 comentários

    Mostrar mais comentários
    00:00 / 00:00
    outros vídeos desta música
    repetir qualidade Automático
    Outros vídeos desta música
    00:00 / 00:00
    Automático
    OK