Cifra Club

Aprenda

So Fine

Guns N' Roses

Cifra: Versão 2 (violão e guitarra)
tom: G
|---------3---------2-----2----------|---------0--------------------|
|---3--------3---3-----------3-----0-|-----------3-----0--------1---|
|---0----------0----------------0----|-------4-------------0------0-|
|---0--------------------------------|-------------------0---3------|
|------------------------------------|--2---------------------------|
|---3--------------------------------|------------------------------|

|---------3---------2-------2--------|---------0--------------------|
|---3--------3---3------------3---0--|-----------3------------3-----|
|---0----------0----------------0----|-------4-----------0--------0-|
|---0--------------------------------|-----------------2----0---0---|
|------------------------------------|--2------------3--------------|
|---3--------------------------------|------------------------------|

|---------3---------2-------2--------|---------0--------------------|
|------------3---3------------3---0--|-----------3------0-----1-----|
|--------------0----------------0----|-------4-------------0-----0--|
|---0--------------------------------|------------------------------|
|------------------------------------|--2---------------------------|
|---3--------------------------------|------------------------------|

|-----------3-------2-------2--------|--------0---------------------|
|---0---------3---3-----------3---0--|----------3--------------3----|
|---0-----------0---------------0----|------4-------------0-------0-|
|---0--------------------------------|------------------2----0------|
|------------------------------------|--2-------------3-------------|
|---3--------------------------------|------------------------------|

(verso 1)

|-----------3-------2----------------|--------0---------------------|
|-------------3---3---------------0--|-----------3----0------1------|
|---------------0--------------0-----|------4------------0-------0--|
|---0--------------------------------|------------------------------|
|------------------------------------|--2---------------------------|
|---3--------------------------------|------------------------------|

|-----------3-------2------2---------|--------0---------------------|
|---0---------3---3----------3---0---|-----------3-------------3----|
|---0-----------0--------------0-----|------4-------------0-------0-|
|---0--------------------------------|------------------2----0------|
|------------------------------------|--2-------------3-------------|
|---3--------------------------------|------------------------------|

|-----------3-------2------2---------|--------0---------------------|
|-------------3---3----------3---0---|-----------3------0-----1-----|
|---------------0--------------0-----|------4--------------0-----0--|
|---0--------------------------------|------------------------------|
|------------------------------------|--2---------------------------|
|---3--------------------------------|------------------------------|

|-----------3-----------2------------|---------0--------------------|
|-------------3-------3-----------0--|------------3------------3----|
|------------------0----------0------|------4--------------0---2--0-|
|---0--------------------------------|-------------------2----------|
|------------------------------------|--2-------------3-------------|
|---3--------------------------------|------------------------------|

|----------0-------------------------|------------------------------|
|----------0-----------1-------------|-----------------1------------|
|----------0-------------------0-----|-------------0----------------|
|----------2---------------2---------|---------2--------------------|
|----------2------0------------------|-----3------------------------|
|---0--------------------------------|------------------------------|

|----------0-------------------------|------------------------------|
|----------0-----------1-------------|-----------------1------------|
|----------0-------------------0-----|-------------0----------------|
|----------2---------------2---------|---------2--------------------|
|----------2------0------------------|-----3------------------------|
|---0--------------------------------|------------------------------|

|-----------3-------2----------------|--------0---------------------|
|-------------3---3---------------0--|-----------3----0------1------|
|---------------0--------------0-----|------4------------0-------0--|
|---0--------------------------------|------------------------------|
|------------------------------------|--2---------------------------|
|---3--------------------------------|------------------------------|

|-----------3-------2------2---------|--------0---------------------|
|---0---------3---3----------3---0---|-----------3-------------3----|
|---0-----------0--------------0-----|------4-------------0-------0-|
|---0--------------------------------|------------------2----0------|
|------------------------------------|--2-------------3-------------|
|---3--------------------------------|------------------------------|

|-----------3-------2------2---------|--------0---------------------|
|-------------3---3----------3---0---|-----------3------0-----1-----|
|---------------0--------------0-----|------4--------------0-----0--|
|---0--------------------------------|------------------------------|
|------------------------------------|--2---------------------------|
|---3--------------------------------|------------------------------|

|-----------3-----------2------------|---------0--------------------|
|-------------3-------3-----------0--|------------3------------3----|
|------------------0----------0------|------4--------------0---2--0-|
|---0--------------------------------|-------------------2----------|
|------------------------------------|--2-------------3-------------|
|---3--------------------------------|------------------------------|

|---------0--------------------------|------------------------------|
|---------0------------1-------------|-----------------1------------|
|---------0--------------------0-----|-------------0----------------|
|---------2----------------2---------|---------2--------------------|
|---------2------0-------------------|-----3------------------------|
|---0--------------------------------|------------------------------|

|--------0---------------------------|------------------------------|
|--------0-------------1-------------|--------------1----1h3---1----|
|--------0---------------------0-----|-----------0------------------|
|--------2-----------------2---------|------2-----------------------|
|--------2-------0-------------------|--3---------------------------|
|---0--------------------------------|------------------------------|

|--------0---------------------------|-------------0----------------|
|--------0-------------1-------------|-----------1---1--------------|
|--------0---------------------0-----|---------0---------0----------|
|--------2-----------------2---------|-----2-----------------2------|
|--------2-------0-------------------|--3---------------------------|
|---0--------------------------------|------------------------------|

|--------0---------------------------|----------------0-------------|
|--------0-------------1-------------|------------1-------1---------|
|--------0---------------------0-----|---------0--------------0-----|
|--------2----------------2----------|------2-----------------------|
|--------2-------0-------------------|--3---------------------------|
|---0--------------------------------|------------------------------|

|---------------|------------------|--------------|-----------------|
|---------------|------------------|--------------|-----------------|
|---------------|------------------|--------------|-----------------|
|-7---9--7--7h9-|-9-(9)--------9-\-|--------------|-7--(7)-9--7--7--|
|-5---5--5--5---|-7-(7)--7--7--7-\-|-5--7---5-5-7-|-5--(5)-5--5--5--|
|---------------|------------------|-3--3---3-3-3-|-----------------|

|---------------|------------------|            ---3----------|
|---------------|------------------|            ---3----------|
|---------------|------------------|       3    ---0----------|
|-7---9--7--7h9-|-9-(9)--------9-\-| 
|-5---5--5--5---|-7-(7)--7--7--7-\-|            --------------|
|---------------|------------------|            ---3----------|

(solo) 
         hold bend    RP     RE   and hold bend      RP        RE
|------------------------------------------------10-----------------|
|--10 fb (12)--------(12)---(11)-----(12)-----------(12)~~~~~-(10)--|
|-------------------------------------------------------------------|
|-------------------------------------------------------------------|
|-------------------------------------------------------------------|
|-------------------------------------------------------------------|
                                  bend back up
         hold bend    RP     RE   and hold bend       RP      RE
|------------------------------------------------10-----------------|
|--10 fb (12)~~------(12)---(10)-----(12)------------(12)----(10)~~-|
|-------------------------------------------------------------------|
|-------------------------------------------------------------------|
|-------------------------------------------------------------------|
|-------------------------------------------------------------------|

|--10 fb (12)--10~~~~--15-15-15p14-14-14-14\12-12-12-12/14-14-14-14-|
|-------------------------------------------------------------------|
|-------------------------------------------------------------------|
|-------------------------------------------------------------------|
|-------------------------------------------------------------------|
|-------------------------------------------------------------------|

   PB 14      RE   bend back up      Hold bend       RP
|-----------------------------------------------10------------------|
|--(16)------(12)------(16)------10 fb (12)---------(12)~~~~--------|
|-------------------------------------------------------------------|
|-------------------------------------------------------------------|
|-------------------------------------------------------------------|
|-------------------------------------------------------------------|
         RP   RE
|--10---------------------------------------------------------------|
|-------(12)-(10)p8----10 fb (12)~~~~~~-----15 fb (17)~~~~~~~-------|
|-------------------------------------------------------------------|
|-------------------------------------------------------------------|
|-------------------------------------------------------------------|
|-------------------------------------------------------------------|

|---------------|------------------|--------------|-----------------|
|---------------|------------------|--------------|-----------------|
|---------------|------------------|--------------|-----------------|
|-7---9--7--7h9-|-9-(9)--------9-\-|--------------|-7--(7)-9--7--7--|
|-5---5--5--5---|-7-(7)--7--7--7-\-|-5--7---5-5-7-|-5--(5)-5--5--5--|
|---------------|------------------|-3--3---3-3-3-|-----------------|

|---------------|------------------|            ---3----------|
|---------------|------------------|            ---3----------|
|---------------|------------------|       3    ---0----------|
|-7---9--7--7h9-|-9-(9)--------9-\-| 
|-5---5--5--5---|-7-(7)--7--7--7-\-|            --------------|
|---------------|------------------|            ---3----------|

(outro)

|-----------3-------2--------------|---------0----------------------|
|-------------3---3-------------0--|-------------3----0------1------|
|---------------0-----------0------|------4--------------0------0---|
|---0------------------------------|--------------------------------|
|----------------------------------|--2-----------------------------|
|---3------------------------------|--------------------------------|

|-----------3-------2-----2--------|---------0----------------------|
|---0---------3---3---------3---0--|-------------3--------------3---|
|---0-----------0-------------0----|------4-------------0-----2---0-|
|---0------------------------------|------------------2-----0-------|
|----------------------------------|--2-------------3---------------|
|---3------------------------------|--------------------------------|

|-----------3-------2--------------|---------0----------------------|
|-------------3---3-------------0--|-------------3----0------1------|
|---------------0-----------0------|------4--------------0------0---|
|---0------------------------------|--------------------------------|
|----------------------------------|--2-----------------------------|
|---3------------------------------|--------------------------------|

|-----------3-------2-----2--------|---------0----------------------|
|---0---------3---3---------3---0--|-------------3------------------|
|---0-----------0-------------0----|------4--------------0----------|
|---0------------------------------|-------------------2------------|
|----------------------------------|--2--------------3-------3-2-0--|
|---3------------------------------|--------------------------------|
     G
|----------------------------------|--------------------------------|
|---3------------------------------|-(3)----------------------------|
|---0------------------------------|-(0)----------------------------|
|---0------------------------------|-(0)----------------------------|
|----------------------------------|--------------------------------|
|---3------------------------------|-(3)----------------------------|

Composição de Duff McKagan
Colaboração e revisão:
  • Bruno Meneses
4.305 exibições
    • ½ Tom
    • A
    • Bb
    • B
    • C
    • Db
    • D
    • Eb
    • E
    • F
    • F#
    • G
    • Ab
  • Adicionar à lista

    0 comentários

    Ver todos os comentários

    Conseguiu tocar?

    0 Tocaram 0 Ainda não

    Grave um vídeo tocando So Fine e nos envie!

    00:00 / 00:00
    Outros vídeos desta música
    Repetir Qualidade Automático
    Outros vídeos desta música
    00:00 / 00:00
    Automático

    Cifra Club Pro

    Aproveite o Cifra Club com benefícios exclusivos e sem anúncios
    Cifra Club Pro
    Aproveite o Cifra Club com benefícios exclusivos e sem anúncios
    OK