Cifra Club

Fantasma

Gustavo Cerati

Cifra: Principal (violão e guitarra)
Selo Cifra Club: esta cifra foi revisada para atender aos critérios oficiais da nossa Equipe de Qualidade.
tom: Em
Intro:
                    (Am)
E|------------------------------1-1-----|
B|----------2-----2-----------2-----2---|
G|-------3----------------3-------------| (x 6)
D|----3--------3-------3----------------|
A|--------------------------------------|
E|--------------------------------------|

                                    (Am)
E|------------------------------1-1----------------------------------1-1-----|
B|----------2-----2----------2-------2------------2-----2---------2-------2--|
G|-------3----------------3--------------------3---------------3-------------|
D|----3--------3-------3-------------------3---------3------3----------------|
A|---------------------------------------------------------------------------|
E|---------------------------------------------------------------------------|
                Mejor quedarse quieto                 y esperar

                                    (Am)
E|-------------------------------------------------------------------1-1-----|
B|----------2-----2----------2--------------------2-----2---------2-------2--|
G|-------3----------------3--------------------3---------------3-------------|
D|----3--------3-------3-------------------3---------3------3----------------|
A|---------------------------------------------------------------------------|
E|---------------------------------------------------------------------------|
                Por favor perdona                     mi actitud

                                    (Am)
E|------------------------------1------------------------------------1-1-----|
B|----------2-----2----------2--------------------2-----2---------2-------2--|
G|-------3----------------3--------------------3---------------3-------------|
D|----3--------3-------3-------------------3---------3------3----------------|
A|---------------------------------------------------------------------------|
E|---------------------------------------------------------------------------|
                En caída libre                        no soy libre

                         (Am)
E|-------------------------------------------------|
B|----------2----2----------2----2---------2----2--|
G|-------3---------------3--------------3----------|
D|----3-------3-------3-------3------3-------3-----|
A|-------------------------------------------------|
E|-------------------------------------------------|
               Nubazón         nubazón,


     Bm   C#m 
pasará

Bm   C#m    (x2)

Bm 
La hondonada nos

   (Sim)(Am)
E|--3---------------1-1-----------------------------------------------|
B|--4--2---------2-------2---------2-----2--2-----2-------------------|
G|--5---------3-------------------------------------------------------|
D|--5------3-------------------3------3--------3-----3----------------|
A|--3-----------------------------------------------------------------|
E|--1-----------------------------------------------------------------|
  dejó sin caricias

Bm                      C#m 
Y varias noches sin poder    dormir

                                    (Am)
E|------------------------------1-1----------------------------------------|
B|----------2-----2----------2-------2------------2-----2---------2--------|
G|-------3----------------3--------------------3---------------3-----------|
D|----3--------3-------3-------------------3---------3------3--------------|
A|-------------------------------------------------------------------------|
E|-------------------------------------------------------------------------|

        (Bm )             (Cm )
E|-------------3----------------4-----|
B|----------4----------------5--------|
G|-------5----------------6-----------| (x 2)
D|----5----------------6--------------|
A|------------------------------------|
E|------------------------------------|

E|----------------------------------------|
B|----------------------------------------|
G|----------------------------------------|
D|---4---3--------------------4---3-------|
A|-----------4------------------------4---|
E|----------------------------------------|
          Fatalismo inútil         ignorar temores

   (Sim)(Am)
E|--3---------------1-1------3----------------------|
B|--4------------2-------2---4-------2------2-------|
G|--5---------3--------------5----------------------|
D|--5------3-----------------5---3------3-----------|
A|--3------------------------3----------------------|
E|--1------------------------1----------------------|
                                         Me muero

Bm                  C#m   Bm   C#m 
por creer que es posible

           Bm   C#m 
Seamos amigos

Bm 
   O la vida

     (Sim)(Am)

E|--3---------------1-1------3------------------------------|
B|--4---2--------2-------2---4---2-----2--------2--2--2--1--|
G|--5---------3--------------5---------------3--------------|
D|--5------3-----------------5------3-----3-----------------|
A|--3------------------------3------------------------------|
E|--1------------------------1------------------------------|
sentirá aún más frío

Bm                   C#m 
Y el fantasma no podrá   dormir
Outros vídeos desta música
    5.923 exibições
      • ½ Tom
      • Am
      • Bbm
      • Bm
      • Cm
      • C#m
      • Dm
      • Ebm
      • Em
      • Fm
      • F#m
      • Gm
      • G#m
    • Adicionar à lista

    Afinação da cifra

    Afinador online

      0 comentários

      Ver todos os comentários

      Entre para o Cifra Club PRO

      Tenha acesso a benefícios exclusivos no App e no Site

      • Chega de anúncios

      • Badges exclusivas

      • Mais recursos no app do Afinador

      • Atendimento Prioritário

      • Aumente seu limite de lista

      • Ajude a produzir mais conteúdo

      Cifra Club Pro

      Aproveite o Cifra Club com benefícios exclusivos e sem anúncios
      Cifra Club Pro
      Aproveite o Cifra Club com benefícios exclusivos e sem anúncios
      Ops (: Contenido disponible sólo en portugués.
      OK