Cifra Club

Cem Mil

Gusttavo Lima

Cifra: Aula-pocket (violão e guitarra)
Tom: G
[Intro] Dm  C  G

E|----15/17-17-17p15-15-15h17p15-13-13-13h15p13--------|
B|-13--------------------------------------------------|
G|-----------------------------------------------------|
D|-----------------------------------------------------|
A|-----------------------------------------------------|
E|-----------------------------------------------------|

E|-12-12-12-12h13p12-----------------------------------|
B|-------------------15-13-12--------------------------|
G|-----------------------------------------------------|
D|-----------------------------------------------------|
A|-----------------------------------------------------|
E|-----------------------------------------------------|

[Primeira parte]

Dm           F
   Não fale mais o meu nome
        C
Não me telefone
       G                     Dm
Por favor, não pergunte por mim
             F
Vê se me esquece e some
          C           
Se eu te ver de longe
        G
Viro a cara e finjo que não vi

Dm
   Mas eu não vou mentir
F                  C
  Tá doendo lá no fundo
              G
Sem você, eu não consigo mais dormir
Dm
   Vamos fazer assim
F                     C
  Melhor não me procurar
                      G
Porque eu morro de medo de te perdoar

[Refrão]

Dm
   Eu tô falando mal de você, iê
F
  Que você nunca soube fazer, iê
Am
   Cem mil com quem quiser eu aposto
G
  Se ela bater o dedo, eu volto

Dm
   Eu tô falando mal de você, iê
F
  Que você nunca soube fazer, iê
Am
   Cem mil com quem quiser eu aposto
G
  Se ela bater o dedo, eu volto
  Dm              G            Am
Ela não vale um real, mas eu adoro

[Solo] Em  G  D  Am  Em  G  D  Dm  C  G

[TAB - Solo meio da música]

E|-----------------------------------------------------|
B|-13-15-12h15p12--13-13p12--------------12-13---------|
G|--------------------------14-12-14/16--------14------|
D|-----------------------------------------------------|
A|-----------------------------------------------------|
E|-----------------------------------------------------|

E|-----------------------------------------------------|
B|-13-15-12h15p12-13--13p12-------------12h13/15-------|
G|--------------------------14-12-14/16----------------|
D|-----------------------------------------------------|
A|-----------------------------------------------------|
E|-----------------------------------------------------|

E|-----------------------------------------------------|
B|-----------------------------------------------------|
G|-14-14-12-12-11-11-10-10----10/12-12-12/10-----------|
D|----------------------------12/14-14-14/12-12-12p10--|
A|-------------------------10--------------------------|
E|-----------------------------------------------------|

E|------------------------------------10-10-10-10-10/--|
B|-----------------------------------------------------|
G|-----------------------------------------------------|
D|----10h12--10h12-10h12-10h12-10h12-------------------|
A|-10--------------------------------------------------|
E|-----------------------------------------------------|

[Primeira parte]

Dm           F
   Não fale mais o meu nome
        C
Não me telefone
       G                     Dm
Por favor, não pergunte por mim
             F
Vê se me esquece e some
          C           
Se eu te ver de longe
        G
Viro a cara e finjo que não vi

Dm
   Mas eu não vou mentir
F                  C
  Tá doendo lá no fundo
              G
Sem você, eu não consigo mais dormir
Dm
   Vamos fazer assim
F                     C
  Melhor não me procurar
                      G
Porque eu morro de medo de te perdoar

[Refrão]

Dm
   Eu tô falando mal de você, iê
F
  Que você nunca soube fazer, iê
Am
   Cem mil com quem quiser eu aposto
G
  Se ela bater o dedo, eu volto

Dm
   Eu tô falando mal de você, iê
F
  Que você nunca soube fazer, iê
Am
   Cem mil com quem quiser eu aposto
G
  Se ela bater o dedo, eu volto

Dm
   Eu tô falando mal de você, iê
F
  Que você nunca soube fazer, iê
Am
   Cem mil com quem quiser eu aposto
G
  Se ela bater o dedo, eu volto
  Dm              G            Am
Ela não vale um real, mas eu adoro

[Final] Em  G  D  Am  Em  G  D  Dm  C  G

E|-----------------------------------------------------|
B|-13-15-12--13-13p12-----------------12-13------------|
G|---------------------14-12-14-14/16--------14--------|
D|-----------------------------------------------------|
A|-----------------------------------------------------|
E|-----------------------------------------------------|

E|-----------------------------------------------------|
B|-----------------------------------------------------|
G|-14-14-14/12-12-12-12/11-11-11-11/9-9-9-9------------|
D|-----------------------------------------------------|
A|-----------------------------------------------------|
E|-----------------------------------------------------|

E|-----------------------------------------------------|
B|-13-15-12-13-13p12---------------12h13/15------------|
G|---------------------14-12-14/16---------------------|
D|-----------------------------------------------------|
A|-----------------------------------------------------|
E|-----------------------------------------------------|

E|-17-17-17/15-15-15-15p13-13-13-13/12-12-12-----------|
B|-----------------------------------------------------|
G|-----------------------------------------------------|
D|-----------------------------------------------------|
A|-----------------------------------------------------|
E|-----------------------------------------------------|

E|-13p12-----------------------------------------------|
B|-------15-12-15---12h15-12h15-12h15-12h15------------|
G|-----------------------------------------------------|
D|-----------------------------------------------------|
A|-----------------------------------------------------|
E|-----------------------------------------------------|
exibições 2.827
Acordes para:
    Composição: Gusttavo Lima / Thierry Coringa Colaboração e revisão:
    • Caico Antunes

    0 comentários

    mostrar mais comentários

    Conseguiu tocar?

    2 tocaram 0 ainda não

    Grave um vídeo tocando Cem Mil e mande pra gente!

    00:00 / 00:00
    outros vídeos desta música
    repetir qualidade Automático
    Outros vídeos desta música
    00:00 / 00:00
    Automático
    Capítulos
    • Abertura
    • Acordes
    • Ensinando ritmo
    • Tocando sequência acordes introdução
    • Ensinando dedilhado primeira parte
    • Tocando dedilhado primeira parte
    • Tocando trecho da música
    • Tocando solos
    • Encerramento
    OK