Cifra Club

Cem Mil

Gusttavo Lima

Cifra: Versão 3 (violão e guitarra)
tom: G
[Intro] Dm  C  G

E|----15/17-17-17--15-15-15h17p15--13-13-13h15p13---12-12-12~---|
B|-13-----------------------------------------------------------|
G|--------------------------------------------------------------|
D|--------------------------------------------------------------|
A|--------------------------------------------------------------|
E|--------------------------------------------------------------|

E|--13-12-------------------------------------------------------|
B|--------15-13-13h15~------------------------------------------|
G|--------------------------------------------------------------|
D|--------------------------------------------------------------|
A|--------------------------------------------------------------|
E|--------------------------------------------------------------|

[Primeira Parte]

Dm           F
   Não fale mais o meu nome
        C
Não me telefone
       G                     Dm
Por favor, não pergunte por mim

         F
Vê se me esquece e some
          C
Se eu te ver de longe
        G                    Dm
Viro a cara e finjo que não vi

[Riff 1]

E|--------------------------------|
B|--------------------------------|
G|-----7/9~-----------------------|
D|--------------------------------|
A|--------------------------------|
E|--------------------------------|

[Segunda Parte]

                    F
Mas eu não vou mentir
                 C
Tá doendo lá no fundo
              G
Sem você, eu não consigo mais dormir

[Riff 1]

E|--------------------------------|
B|--------------------------------|
G|-----7/9-7----------------------|
D|-----------10-9-7~--------------|
A|--------------------------------|
E|--------------------------------|

 Dm
Vamos fazer assim
 F
Melhor não me procurar
 C                                G
Porque eu morro de medo de te perdoar

[Riff 2]

E|----------------12--13---13-13-13~---|
B|----12--13--15-----------15-15-15~---|
G|--12--12--12--12--12-----12-12-12~---|
D|-------------------------------------|
A|-------------------------------------|
E|-------------------------------------|

[Refrão]

Dm                               F
   Eu tô falando mal de você, iê, iê

[Riff 3]

E|---------------------------------|
B|---6/8~-6~-----------------------|
G|---------------------------------|
D|---------------------------------|
A|---------------------------------|
E|---------------------------------|

                              Am
Que você nunca soube fazer, iê, iê

[Riff 3]

E|----------------------------|
B|---6/8-5~-------------------|
G|----------------------------|
D|----------------------------|
A|----------------------------|
E|----------------------------|
                                 G
Cem mil com quem quiser eu aposto
                             Dm
Se ela bater o dedo, eu volto

[Riff 4]

E|-----------------------------------------------|
B|-13-12-----------------------------------------|
G|------14-12------------------------------------|
D|-----------------------------------------------|
A|-----------------------------------------------|
E|-----------------------------------------------|

                              F
Eu tô falando mal de você, iê, iê

[Riff 4]

E|-----------------------------------------------------|
B|---12--13--13--12~----13--12--13--12--13--12~--------|
G|-12--12--12--12-----12--12--12--12--12--12-----------|
D|-----------------------------------------------------|
A|-----------------------------------------------------|
E|-----------------------------------------------------|
                              Am
Que você nunca soube fazer, iê, iê
                                 G
Cem mil com quem quiser eu aposto
                             Dm
Se ela bater o dedo, eu volto
  Dm              G             Am
Ela não vale um real, mas eu adoro

[Solo] Am  Em  G  Dm 
       Am  Em  G  D 
       Dm  C  G 

E|---------------------------------------------------|
B|-13-15-12~--13-13p12----------------12-13p12-------|
G|---------------------14-12-14-14/16----------14~---|
D|---------------------------------------------------|
A|---------------------------------------------------|
E|---------------------------------------------------|

E|---------------------------------------------------|
B|-13-15-12~--13-13p12-------------12h13-13/15-15~---|
G|---------------------14-12-14/16-------------------|
D|---------------------------------------------------|
A|---------------------------------------------------|
E|---------------------------------------------------|

E|---------------------------------------------------|
B|---------------------------------------------------|
G|-14-14-14/12--12-12-12/11--11-11-11/10-10-10-10~~--|
D|---------------------------------------------------|
A|---------------------------------------------------|
E|---------------------------------------------------|

E|-----------------------------------------------------10~(5x)-----|
B|-----------------------------------------------------------------|
G|-10/12--12-12~/10--10-10~/9---9--9/10~--10-10-10-10~-------------|
D|-12/14--14-14~/12--12-12~/10--10-10/12~-12-12-12-12~-------------|
A|-----------------------------------------------------------------|
E|-----------------------------------------------------------------|

[Primeira Parte]

Dm           F
   Não fale mais o meu nome
        C
Não me telefone
       G                     Dm
Por favor, não pergunte por mim

         F
Vê se me esquece e some
          C
Se eu te ver de longe
        G                    Dm
Viro a cara e finjo que não vi

[Riff 5]

E|------------------------------|
B|-8-6-5------------------------|
G|-------5-7/9~-----------------|
D|------------------------------|
A|------------------------------|
E|------------------------------|

                    F
Mas eu não vou mentir

[Riff 5]

E|------------------------------|
B|------------------------------|
G|----9/7~-7/5~-----------------|
D|------------------------------|
A|------------------------------|
E|------------------------------|

               C
Tá doendo lá no fundo
              G
Sem você, eu não consigo mais dormir

[Riff 5]

E|---------------------|
B|--8--8-8~---8-6p5----|
G|--7--7-7~--------7~--|
D|---------------------|
A|---------------------|
E|---------------------|

 Dm
Vamos fazer assim
 F
Melhor não me procurar
 C                  G
Porque eu morro de medo de te perdoar

[Riff 6]

E|----------------12--13---13-13-13~---|
B|----12--13--15-----------15-15-15~---|
G|--12--12--12--12--12-----12-12-12~---|
D|-------------------------------------|
A|-------------------------------------|
E|-------------------------------------|

[Refrão]

Dm                               F
   Eu tô falando mal de você, iê, iê

[Riff 7]

E|--7/8-8-8-8/10-10-10-10/12-12-12-12/10-10-10-10/8-8-8-8/7-7-7/8~-|
B|-----------------------------------------------------------------|
G|-----------------------------------------------------------------|
D|-----------------------------------------------------------------|
A|-----------------------------------------------------------------|
E|-----------------------------------------------------------------|
                              Am
Que você nunca soube fazer, iê, iê
                                 G
Cem mil com quem quiser eu aposto
                             Dm
Se ela bater o dedo, eu volto

[Riff 8]

E|---------------|
B|-13--13--13~---|
G|---14--14--14~-|
D|---------------|
A|---------------|
E|---------------|

E|------------------------|
B|-13-13-13--15-15-15~----|
G|------------------------|
D|------------------------|
A|------------------------|
E|------------------------|

E|------13--13~-------|
B|-13-----13----------|
G|---14---------------|
D|--------------------|
A|--------------------|
E|--------------------|

                              F
Eu tô falando mal de você, iê, iê
                              Am
Que você nunca soube fazer, iê, iê

[Riff 9]

E|---------------------------------|
B|-13h15-13h15-13h15-13h15-13h15~--|
G|---------------------------------|
D|---------------------------------|
A|---------------------------------|
E|---------------------------------|
                                 G
Cem mil com quem quiser eu aposto
                             Dm
Se ela bater o dedo, eu volto

[Riff 10]

E|--7~/8--8---7~/8--8~-------------|
B|--8~/10-10--8~/10-10~------------|
G|---------------------------------|
D|---------------------------------|
A|---------------------------------|
E|---------------------------------|

[Refrão]

                           F
Eu tô falando mal de você, iê, iê

[Riff 11]

E|-----1~----------|
B|-----------------|
G|---2~------------|
D|--3~-------------|
A|-3~--------------|
E|-----------------|
                              Am
Que você nunca soube fazer, iê, iê

[Riff 12]

E|-----17(4x)-15(4x)-12~--------|
B|------------------------------|
G|------------------------------|
D|------------------------------|
A|------------------------------|
E|------------------------------|
                                G
Cem mil com quem quiser eu aposto
                             Dm
Se ela bater o dedo, eu volto

[Riff 13]

E|--7~/6/7~---------|
B|--8~/7/8~---------|
G|------------------|
D|------------------|
A|------------------|
E|------------------|

  Dm              G            Am
Ela não vale um real, mas eu adoro

[Solo] Am  Em  G  Dm 
       Am  Em  G  D 
       Dm  C  G 

E|---------------------------------------------------|
B|-13-15-12~--13-13p12----------------12-13p12-------|
G|---------------------14-12-14-14/16----------14~---|
D|---------------------------------------------------|
A|---------------------------------------------------|
E|---------------------------------------------------|

E|---------------------------------------------------|
B|---------------------------------------------------|
G|-14-14-14/12--12-12-12/11--11-11-11/9-9-9-9~~------|
D|---------------------------------------------------|
A|---------------------------------------------------|
E|---------------------------------------------------|

E|---------------------------------------------------|
B|-13-15-12~--13-13p12-------------12h13-13/15-15~---|
G|---------------------14-12-14/16-------------------|
D|---------------------------------------------------|
A|---------------------------------------------------|
E|---------------------------------------------------|

E|--17-17-17p15--15-15-15p13--13-13-13p12-13p12-------------|
B|----------------------------------------------15-13-15~---|
G|----------------------------------------------------------|
D|----------------------------------------------------------|
A|----------------------------------------------------------|
E|----------------------------------------------------------|

E|------------------------------|
B|---13h15-13h15-13h15-13h15~---|
G|------------------------------|
D|------------------------------|
A|------------------------------|
E|------------------------------|
00:00 / 00:00
Outros vídeos desta música
Repetir
Outros vídeos desta música
Composição de Gusttavo Lima / Tierry
Colaboração e revisão:
  • Guilherme Santos
8.838 exibições
    • ½ Tom
    • A
    • Bb
    • B
    • C
    • Db
    • D
    • Eb
    • E
    • F
    • F#
    • G
    • Ab
  • Adicionar à lista

    0 comentários

    Ver todos os comentários

    Conseguiu tocar?

    2 Tocaram 1 Ainda não

    Grave um vídeo tocando Cem Mil e nos envie!

    Entre para oCifra Club PRO

    Tenha acesso a benefícios exclusivos no App e no Site

    • Chega de anúncios

    • Prioridade de compra em lançamentos

    • Mais recursos no app do Afinador

    • Atendimento Prioritário

    • Descontos nos produtos Cifra Club

    • Ajude a produzir mais conteúdo

    00:00 / 00:00
    Capítulos
    • Abertura
    • Acordes
    • Ensinando ritmo
    • Tocando sequência acordes introdução
    • Ensinando dedilhado primeira parte
    • Tocando dedilhado primeira parte
    • Tocando trecho da música
    • Tocando solos
    • Encerramento

    Cifra Club Pro

    Aproveite o Cifra Club com benefícios exclusivos e sem anúncios
    Cifra Club Pro
    Aproveite o Cifra Club com benefícios exclusivos e sem anúncios
    OK