Cifra Club

Espetinho

Gusttavo Lima

Cifra: Principal (violão e guitarra)
tom: C
[Intro] C  G  Am  F

[Solo]

E|----------------------------------------------------|
B|-3/5-5-3-3-1-1--3/5-5-3-3-1-1-----------------------|
G|----------------------------------------------------|
D|----------------------------------------------------|
A|----------------------------------------------------|
E|----------------------------------------------------|

E|-----------------------------1/3-3-3---3-3/5--------|
B|-5/6-6-5-5-3-3--3-3-1-1-0-0----------5--------------|
G|----------------------------------------------------|
D|----------------------------------------------------|
A|----------------------------------------------------|
E|----------------------------------------------------|

E|-6/8-8-8-8------------------------------------------|
B|-8/10-10-10-10-3-5-5/6---6--------------------------|
G|-----------------------5----------------------------|
D|----------------------------------------------------|
A|----------------------------------------------------|
E|----------------------------------------------------|

[Primeira Parte]

   C
Comigo era só muvuca
    G
Com ele é só camarote
          Am
O meu cartão só dava recusado
          F
E o do homem é ilimitado

      C
Só anda de carrão do ano
     G
E o meu é de 2004
     Am
Como é que eu vou bater de frente
                 F
Como esse desgramado

[Pré-Refrão]

                   C
E ele pode te dar tudo
                          G
O mundo inteiro aos seus pés
                          Am
Mas quem disse que você quer
                      F
Quem disse que você quer

[Refrão]

              C
Prefere tá comigo

Andando de golzinho
              G
Comendo um espetinho

Eu tenho o meu valor
                 Am
Prefere meus carinhos
                             F
Eu não preciso comprar seu amor

              C
Prefere tá comigo

Andando de golzinho
              G
Comendo um espetinho

Eu tenho o meu valor
                 Am
Prefere meus carinhos
                             F
Eu não preciso comprar seu amor

( C  Bb  C  Am  F )

[Solo 2]

E|-10-8-10-8----10-8-10-8-10-8------------------------|
B|-----------11----------------11---------------------|
G|----------------------------------------------------|
D|----------------------------------------------------|
A|----------------------------------------------------|
E|----------------------------------------------------|

E|-12-10-12-10----12-10-12-10-12-10-------------------|
B|-------------13-------------------3-----------------|
G|----------------------------------------------------|
D|----------------------------------------------------|
A|----------------------------------------------------|
E|----------------------------------------------------|

E|-12-10-12-10----12-10-12-10----10-12-10----10-------|
B|-------------13-------------13----------13----------|
G|----------------------------------------------------|
D|----------------------------------------------------|
A|----------------------------------------------------|
E|----------------------------------------------------|

E|-12/13-10-------------------------------------------|
B|----------13-10-------------------------------------|
G|----------------12-10-10h12p10----------------------|
D|-------------------------------10-12----------------|
A|----------------------------------------------------|
E|----------------------------------------------------|

[Pré-Refrão]

                   C
E ele pode te dar tudo
                          G
O mundo inteiro aos seus pés
                          Am
Mas quem disse que você quer
                      F
Quem disse que você quer

[Refrão]

              C
Prefere tá comigo

Andando de golzinho
              G
Comendo um espetinho

Eu tenho o meu valor
                 Am
Prefere meus carinhos
                             F
Eu não preciso comprar seu amor

              C
Prefere tá comigo

Andando de golzinho
              G
Comendo um espetinho

Eu tenho o meu valor
                 Am
Prefere meus carinhos
                             F  C
Eu não preciso comprar seu amor
00:00 / 00:00
Outros vídeos desta música
Repetir
Outros vídeos desta música
Composição de Alvino Gomes Alves / Carlos Roberto da Silva Junior / Thallys Pacheco Gontijo Alves
Colaboração e revisão:
  • Gustavo Vaz
  • Manoel Neto
60.754 exibições
    • ½ Tom
    • A
    • Bb
    • B
    • C
    • Db
    • D
    • Eb
    • E
    • F
    • F#
    • G
    • Ab
  • Adicionar à lista

    0 comentários

    Ver todos os comentários

    Conseguiu tocar?

    17 Tocaram 0 Ainda não

    Grave um vídeo tocando Espetinho e nos envie!

    00:00 / 00:00

    Cifra Club Pro

    Aproveite o Cifra Club com benefícios exclusivos e sem anúncios
    Cifra Club Pro
    Aproveite o Cifra Club com benefícios exclusivos e sem anúncios
    OK