Cifra Club

Black Friday Cifra Club

Espetinho

Gusttavo Lima

Cifra: Principal (violão e guitarra)
tom: C
[Intro] C  G  Am  F

[tab - solo]

E|----------------------------------------------------|
B|-3/5-5-3-3-1-1--3/5-5-3-3-1-1-----------------------|
G|----------------------------------------------------|
D|----------------------------------------------------|
A|----------------------------------------------------|
E|----------------------------------------------------|

E|-----------------------------1/3-3-3---3-3/5--------|
B|-5/6-6-5-5-3-3--3-3-1-1-0-0----------5--------------|
G|----------------------------------------------------|
D|----------------------------------------------------|
A|----------------------------------------------------|
E|----------------------------------------------------|

E|-6/8-8-8-8------------------------------------------|
B|-8/10-10-10-10-3-5-5/6---6--------------------------|
G|-----------------------5----------------------------|
D|----------------------------------------------------|
A|----------------------------------------------------|
E|----------------------------------------------------|

[primeira parte]

   C
Comigo era só muvuca
    G
Com ele é só camarote
          Am
O meu cartão só dava recusado
          F
E o do homem é ilimitado

      C
Só anda de carrão do ano
     G
E o meu é de 2004
     Am
Como é que eu vou bater de frente
                 F
Como esse desgramado

[pré-refrão]

                   C
E ele pode te dar tudo
                          G
O mundo inteiro aos seus pés
                          Am
Mas quem disse que você quer
                      F
Quem disse que você quer

[refrão]

              C
Prefere tá comigo

Andando de golzinho
              G
Comendo um espetinho

Eu tenho o meu valor
                 Am
Prefere meus carinhos
                             F
Eu não preciso comprar seu amor

              C
Prefere tá comigo

Andando de golzinho
              G
Comendo um espetinho

Eu tenho o meu valor
                 Am
Prefere meus carinhos
                             F
Eu não preciso comprar seu amor

( C  Bb  C  Am  F )

Solo 2

E|-10-8-10-8------10-8-10-8-10-8----------------------|
B|-----------11------------------11-------------------|
G|----------------------------------------------------|
D|----------------------------------------------------|
A|----------------------------------------------------|
E|----------------------------------------------------|

E|-10-8-10-8------10-8-10-8-10-8----------------------|
B|-----------11------------------11-------------------|
G|----------------------------------------------------|
D|----------------------------------------------------|
A|----------------------------------------------------|
E|----------------------------------------------------|

E|-12-10-12-10------12-10-12-10-12-10-----------------|
B|-------------13---------------------13--------------|
G|----------------------------------------------------|
D|----------------------------------------------------|
A|----------------------------------------------------|
E|----------------------------------------------------|

E|-12-10-12-10------12-10-12-10----10-12-10----10-----|
B|-------------13---------------13----------13--------|
G|----------------------------------------------------|
D|----------------------------------------------------|
A|----------------------------------------------------|
E|----------------------------------------------------|

E|-12/13-10-------------------------------------------|
B|----------13-10\9-----------------------------------|
G|------------------12-10-12p10-----------------------|
D|------------------------------10-12\----------------|
A|----------------------------------------------------|
E|----------------------------------------------------|

E|----------------------------------------------------|
B|---10-10-10-13-13-13-15-13-15/17-15/17--------------|
G|-9--------------------------------------------------|
D|----------------------------------------------------|
A|----------------------------------------------------|
E|----------------------------------------------------|

E|----------------------------------------------------|
B|-17-17-15-13---17-17-15-13---17-17-15-13------------|
G|----------------------------------------------------|
D|----------------------------------------------------|
A|----------------------------------------------------|
E|----------------------------------------------------|

E|----------------------------------------------------|
B|----10-10-10-13-13-13-15-13-15/18-15/18-------------|
G|-10-------------------------------------------------|
D|----------------------------------------------------|
A|----------------------------------------------------|
E|----------------------------------------------------|

[pré-refrão]

                   C
E ele pode te dar tudo
                          G
O mundo inteiro aos seus pés
                          Am
Mas quem disse que você quer
                      F
Quem disse que você quer

[refrão]

              C
Prefere tá comigo

Andando de golzinho
              G
Comendo um espetinho

Eu tenho o meu valor
                 Am
Prefere meus carinhos
                             F
Eu não preciso comprar seu amor

              C
Prefere tá comigo

Andando de golzinho
              G
Comendo um espetinho

Eu tenho o meu valor
                 Am
Prefere meus carinhos
                             F  C
Eu não preciso comprar seu amor
00:00 / 00:00
Outros vídeos desta música
Repetir
Outros vídeos desta música
Composição de Alvino Gomes Alves / Carlos Roberto da Silva Junior / Thallys Pacheco Gontijo Alves
Colaboração e revisão:
  • Alexandre César
  • Gustavo Vaz
  • Manoel Neto
191.230 exibições
    • ½ Tom
    • A
    • Bb
    • B
    • C
    • Db
    • D
    • Eb
    • E
    • F
    • F#
    • G
    • Ab
  • Adicionar à lista

    0 comentários

    Ver todos os comentários

    Conseguiu tocar?

    31 Tocaram 0 Ainda não

    Grave um vídeo tocando Espetinho e nos envie!

    Entre para oCifra Club PRO

    Tenha acesso a benefícios exclusivos no App e no Site

    • Chega de anúncios

    • Prioridade de compra em lançamentos

    • Mais recursos no app do Afinador

    • Atendimento Prioritário

    • Descontos nos produtos Cifra Club

    • Ajude a produzir mais conteúdo

    00:00 / 00:00

    Cifra Club Pro

    Aproveite o Cifra Club com benefícios exclusivos e sem anúncios
    Cifra Club Pro
    Aproveite o Cifra Club com benefícios exclusivos e sem anúncios
    OK