Notificações Amigos pendentes

      Gusttavo Lima

      Mente Pra Mim

      216.591 exibições
      Tom: E
      Intro: C#m A E B
      
      
      E|------------------------------------------------------------------------------|
      B|---------------------------------------7/9-7-7-7-7-4-7-7--7-7-7-7/9-7-7-2-7-9-|
      G|------------------------------------------------------------------------------|
      D|--6-4-6-4-6-4-6---6-6-6-6/8-9-6-6-4-6-----------------------------------------|
      A|------------------------------------------------------------------------------|
      E|------------------------------------------------------------------------------|
      
      
      C#m
      Olha dentro dos meus olhos
                         E
      E me conta umas mentiras
      Só pra me agradar
      B
      Fala que hoje eu tô bonito
                         F#
      Que ainda pensa em mim quando vai se deitar
      C#m
      Diz que quando acorda todo dia
                        E
      Seu primeiro pensamento pode ser que seja eu
      
      B
      Mente pra esse cara inocente
                       F#           RIFF 01
      Fala que ele ainda vai ser seu
      C#m
      O amor da sua vida era eu
                  F#  RIFF 02
      Não era verdade
      A                F#m
      Eu vou amar doendo, eu vou amar sofrendo
      B                               RIFF 03
      Mesmo sabendo que tudo pode acabar
      
      RIFF 01
      
      E|-7-6-------------
      B|------7--4--4/5--
      
      
      RIFF 02
      
      E|-7-6-4-5---
      B|-----------
      
      
      RIFF03
      
      E|--------------------
      B|-----5-4------------
      G|---4-----4-----4----
      D|-4---------4/6---6--
      A|--------------------
      E|--------------------
      
      
      C#m
      Mente pra mim
      É o que eu gosto
      A
      Quanto mais você me ilude mais eu te adoro
      E
      Menina indecente, que finge ser carente
      B
      E é desse jeito que eu te provoco
      
      C#m
      Mente pra mim
      É o que eu gosto
      A
      Quanto mais você me ilude mais eu te adoro
      E
      Menina indecente, que finge ser carente
      B
      E é desse jeito que eu te provoco
      
      (repete a intro)
      
      Base: C#m A E B
      
      
      E|--------------------------4-----------------5/7-5-4---4---4-5-7-----|
      B|--5-4-5-4-5-----5-4-5-4-5-----5-4-5-4-5-4-5---------7-----------7~--|
      G|--------------------------------------------------------------------|
      D|--------------------------------------------------------------------|
      A|--------------------------------------------------------------------|
      E|--------------------------------------------------------------------|
      
      
      C#m
      O amor da sua vida era eu
           B    A#  G#  A#
      Não era verdade
      A                F#m
      Eu vou amar doendo, eu vou amar sofrendo
      B                                  RIFF 04
      Mesmo sabendo que tudo pode acabar
      
      RIFF 04
      
      E|--------------------
      B|--4-5-4-------------
      G|-------6-4---4---4--
      D|-----------6---6----
      A|--------------------
      E|--------------------
      
      
      C#m
      Mente pra mim
      É o que eu gosto
      A
      Quanto mais você me ilude mais eu te adoro
      E
      Menina indecente, que finge ser carente
      B
      E é desse jeito que eu te provoco
        Composição: Bigair Dy jayme, Israel Novaes e Matheus aleixoColaboração e revisão:
        • siqueiradennys
        • Jardel
        • Robert

        Comentários 7

        140 .
        • tiago tiago: Em 15/07/2014 14:03

          no teclado como fica essas riffs qual as notas ?

        • Murillo Murillo: Em 31/12/2013 23:30

          facil rsrs

        • demiranda55 demiranda55: Em 28/02/2013 20:23

          gente assiste ae minha versao desta musica no you tube blz /watch?v=xS9g9KObn-0

          • Evelyn Evelyn: Em 26/12/2013 01:47

            demiranda55 eu vi vc canta bem q só

        • jordan_martins jordan_martins: Em 20/11/2012 14:06

          muito linda essa musica

        • violeiro17 violeiro17: Em 11/11/2012 11:26

          o solinho na guitarra é facinho

          • gostosoda11 gostosoda11: Em 18/05/2013 20:18

            é facil mas não está completo

        140 cancelar

        conseguiu tocar?

        • •••
        Alessandro Albanese9.473 visualizações
          ver covers de outras músicas »
          0:00 / 0:00

          Capítulos

            1 versão de violão dificuldade exibições contribuição e correção
            1 versão de guitarra dificuldade exibições contribuição e correção
            1 versão de cavaco dificuldade exibições contribuição e correção
            1 versão de teclado dificuldade exibições contribuição e correção
            play/pausefechar subir/descer velocidade
            6ª corda E5ª corda A4ª corda D3ª corda G2ª corda B1ª corda E
              acordes
              publicidade
              fechar
              ok