Cifra Club

Termina Comigo Antes

Gusttavo Lima

Cifra: Principal (violão e guitarra)
tom: Am (forma dos acordes no tom de Em) Capotraste na 5ª casa
[Intro] Em7  C9  G  D

[Tab - Solo Intro]

Parte 1 de 2
E|------------------------------------------|
B|------------------------------------------|
G|-7/9~--7/9~--7/9-7~-----------------------|
D|---------------------7/9-7----------------|
A|------------------------------------------|
E|------------------------------------------|

Parte 2 de 2
E|------------------------------------------|
B|------------------------------------------|
G|------------------------------------------|
D|-4/5/4-4/2-2~-----------------------------|
A|------------------------------------------|
E|------------------------------------------|

[Primeira Parte]

Em7      C9        G
    Quem ama dá valor
   D/F#         Em7
E pensa no que faz
  C9            G
Quando existe amor
   D/F#         Em7
O coração não trai

[Pré-Refrão]

       C9                G
Tô sentindo você tão distante
        D/F#              Em7
Se arrumando demais pra sair
      C9             G
Cada dia tá mais elegante
       D/F#                G  C9  D
Tô sentindo que não é pra mim

[Refrão]
             
G                 C/G                  G
  Se resolver trocar o amor por um instante
    D/F#       Em7
Termina comigo antes
                C9           G
Se pra você eu sou insignificante
    D/F#       Em7
Termina comigo antes

    D/F#  G      G/B  C9
Se resol_ver trocar 
                  G
O amor por um instante
    D/F#       Em7
Termina comigo antes
                C9           G
Se pra você eu sou insignificante
    D          Em7  
Termina comigo antes

[Solo] C9  G  D

E|------------------------------------------|
B|--------------------/7~-7/8/7-7/12-12~----|
G|-7/9~--7/9~--7/9-7~-----------------------|
D|------------------------------------------|
A|------------------------------------------|
E|------------------------------------------|

[Pré-Refrão]

Em7        C9                G
    Tô sentindo você tão distante
        D/F#              Em7
Se arrumando demais pra sair
      C9             G
Cada dia tá mais elegante
       D/F#                G  C9  D
Tô sentindo que não é pra mim

[Refrão]
             
G                 C/G                  G
  Se resolver trocar o amor por um instante
    D/F#             Em7
Termina comigo antes
                C9           G
Se pra você eu sou insignificante
    D/F#             Em7
Termina comigo antes

    D/F#  G      G/B  C9
Se resol_ver trocar 
                  G
O amor por um instante
    D/F#             Em7
Termina comigo antes
                C9           G
Se pra você eu sou insignificante
    D                Em7
Termina comigo antes
    C9         G     
Termina comigo antes
    D/F#             Em7
Termina comigo antes
    C9         G     
Termina comigo antes

[Final]
     
      D/F#            Em7
Vai doer, mas termina antes
00:00 / 00:00
Outros vídeos desta música
Repetir
Outros vídeos desta música
Composição de Bruno César / Alex Torricelli / Cristian Luz
Colaboração e revisão:
  • Gustavo Zanandrez
  • Lucasbpelle
  • Alex Buttenbender
231.295 exibições
  • Simplificar cifra
    • ½ Tom
    • Am
    • Bbm
    • Bm
    • Cm
    • C#m
    • Dm
    • Ebm
    • Em
    • Fm
    • F#m
    • Gm
    • G#m
  • Adicionar à lista

    0 comentários

    Ver todos os comentários

    Entre para oCifra Club PRO

    Tenha acesso a benefícios exclusivos no App e no Site

    • Chega de anúncios

    • Prioridade de compra em lançamentos

    • Mais recursos no app do Afinador

    • Atendimento Prioritário

    • Descontos nos produtos Cifra Club

    • Ajude a produzir mais conteúdo

    00:00 / 00:00

    Cifra Club Pro

    Aproveite o Cifra Club com benefícios exclusivos e sem anúncios
    Cifra Club Pro
    Aproveite o Cifra Club com benefícios exclusivos e sem anúncios
    OK