Cifra Club

Aprenda

What Were You Expecting

Halestorm

Cifra: Principal (violão e guitarra)
tom: G
GTR I e GTR II - Drop Db Tuning  (eb,Bb,Gb,Db,Ab,Db)

Introdução

   GTR II
E|-------------------------------------------------|
B|-------------------------------------------------|
G|-------------------------------------------------|
D|-12-12-12-12-12-12-12-10-12-12-12-12-12-12-12-15-|
A|-------------------------------------------------|
D|-------------------------------------------------|

   GTR II
E|-------------------------------------------------|
B|-------------------------------------------------|
G|-------------------------------------------------|
D|-12-12-12-12-12-12-12-10-12/---------------------|
A|-------------------------------------------------|
D|-------------------------------------------------|

Riff 1

   GTR I,II
E|-------------------------------------------------|
B|-------------------------------------------------|
G|-------------------------------------------------|
D|-------------------------------------------------|
A|-------------------------------------------------|
D|--0--0-15----0--0-15----0--0-15--0-12--0-12h15-|

   GTR I,II
E|-------------------------------------------------|
B|-------------------------------------------------|
G|-------------------------------------------------|
D|-------------------------------------------------|
A|-------------------------------------------------|
D|--0--0-15----0--0-15----0--0-15--0-15--0-15h17-|

   GTR I,II
E|-------------------------------------------------|
B|-------------------------------------------------|
G|-------------------------------------------------|
D|-------------------------------------------------|
A|-------------------------------------------------|
D|--0--0-15----0--0-15----0--0-15--0-12--0-12h15-|

   GTR I,II
E|-------------------------------------------------|
B|-------------------------------------------------|
G|-------------------------------------------------|
D|-------------------------------------------------|
A|-------------------------------------------------|
D|--0--0-15----0--0-15----0--0-15--0-15--0-15h17-|

Verso

   GTR I,II
E|-------------------------------------------------|
B|-------------------------------------------------|
G|-------------------------------------------------|
D|-------------------------------------------------|
A|--0--0-----0--0--0-----0--0--0-----0--0--0-----0-|
D|--0--0-----0--0--0-----0--0--0-----0--0--0-----0-|
     .  .     .  .  .     .  .  .     .  .  .     .

   GTR I,II
E|-------------------------------------------------|
B|-------------------------------------------------|
G|-------------------------------------------------|
D|-------------------------------------------------|
A|--3--3-----3--3--3-----4--2--2-----2--2--2-----3-|
D|--3--3-----3--3--3-----4--2--2-----2--2--2-----3-|
     .  .     .  .  .     .  .  .     .  .  .     .

   GTR I,II
E|-------------------------------------------------|
B|-------------------------------------------------|
G|-------------------------------------------------|
D|-------------------------------------------------|
A|--0--0-----0--0--0-----0--0--0-----0--0--0-----0-|
D|--0--0-----0--0--0-----0--0--0-----0--0--0-----0-|
     .  .     .  .  .     .  .  .     .  .  .     .

   GTR I
E|-------------------------------------------------|
B|-------------------------------------------------|
G|-------------------------------------------------|
D|-------------------------------------------------|
A|--3--3-----3--3--3-----4--2--2-----2--2--2-----3-|
D|--3--3-----3--3--3-----4--2--2-----2--2--2-----3-|
  |  .  .     .  .  .     .  .  .     .  .  .     .
  |GTR II
E|-------------------------------------------------|
B|-------------------------------------------------|
G|----------------------------------------------12|
D|----------------------------------------------12|
A|-------------------------------------------------|
D|-------------------------------------------------|

   GTR I
E|-------------------------------------------------|
B|-------------------------------------------------|
G|-------------------------------------------------|
D|-------------------------------------------------|
A|--0--0-----0--0--0-----0--0--0-----0--0--0-----0-|
D|--0--0-----0--0--0-----0--0--0-----0--0--0-----0-|
  |  .  .     .  .  .     .  .  .     .  .  .     .
  |GTR II PH.
E|-------------------------------------------------|
B|-------------------------------------------------|
G|-------------------------------------------------|
D|-------------------------------------------------|
A|--------8-----------8-----------8-----------8--7-|
D|--0--0-----0--0--0-----0--0--0-----0--0--0-------|
     .  .     .  .  .     .  .  .     .  .  .

   GTR I
E|-------------------------------------------------|
B|-------------------------------------------------|
G|-------------------------------------------------|
D|-------------------------------------------------|
A|--3--3-----3--3--3-----4--2--2-----2--2--2-----3-|
D|--3--3-----3--3--3-----4--2--2-----2--2--2-----3-|
  |  .  .     .  .  .     .  .  .     .  .  .     .
  |GTR II       PH.                     PH.
E|-------------------------------------------------|
B|-------------------------------------------------|
G|-------------------------------------------------|
D|-------------------------------------------------|
A|-------12----12br--------------10-----9br--------|
D|--0--0--------------------0--0-------------------|
     .  .                    .  .

   GTR I
E|-------------------------------------------------|
B|-------------------------------------------------|
G|-------------------------------------------------|
D|-------------------------------------------------|
A|--0--0-----0--0--0-----0--0--0-----0--0--0-----0-|
D|--0--0-----0--0--0-----0--0--0-----0--0--0-----0-|
  |  .  .     .  .  .     .  .  .     .  .  .     .
  |GTR II PH.                                 PH.
E|-------------------------------------------------|
B|-------------------------------------------------|
G|-------------------------------------------------|
D|-------------------------------------------10~---|
A|--------8-----------8-----------8----------------|
D|--0--0-----0--0--0-----0--0--0-----0--0--0-------|
     .  .     .  .  .     .  .  .     .  .  .

   GTR I
E|-------------------------------------------------|
B|-------------------------------------------------|
G|-------------------------------------------------|
D|-------------------------------------------------|
A|--3--3-----3--3--3-----4--2--2-----2--2--2-------|
D|--3--3-----3--3--3-----4--2--2-----2--2--2-----3-|
  |  .  .     .  .  .     .  .  .     .  .  .
  |GTR II       PH.                     PH.
E|-------------------------------------------------|
B|-------------------------------------------------|
G|-------------------------------------------------|
D|-------------------------------------------------|
A|-------12----12br--------------10-----9br--------|
D|--0--0--------------------0--0-------------------|
     .  .                    .  .

Pre-Refrão

   GTR II
E|-------------------------------------------------|
B|-------------------------------------------------|
G|-------------------------------------------------|
D|-12-12-12-12-12-12-12-10-12-12-12-12-12-12-12-15-|
A|-------------------------------------------------|
D|-------------------------------------------------|

   GTR II
E|-------------------------------------------------|
B|-------------------------------------------------|
G|-------------------------------------------------|
D|-12-12-12-12-12-12-12-10-12/---------------------|
A|-------------------------------------------------|
D|-------------------------------------------------|

Refrão

   GTR I
E|-------------------------------------------------|
B|-------------------------------------------------|
G|-------------------------------------------------|
D|--0--0--0--0--0--0--0--0--0--0--0--0--0--0--0--0-|
A|--0--0--0--0--0--0--0--0--0--0--0--0--0--0--0--0-|
D|--0--0--0--0--0--0--0--0--0--0--0--0--0--0--0--0-|
  |
  |GTR II
E|-------------------------------------------------|
B|-------------------------------------------------|
G|-12-12-12-11-11-11-12-12-12-11-11-11-12-12-11-11-|
D|--x--x--x--x--x--x--x--x--x--x--x--x--x--x--x--x-|
A|-10-10-10--9--9--9-10-10-10--9--9--9-10-10--9--9-|
D|-------------------------------------------------|

   GTR I,II
E|-------------------------------------------------|
B|-------------------------------------------------|
G|-------------------------------------------------|
D|--3--3--3--3--3--3--3--3--2--2--2--2--2--2--2--2-|
A|--3--3--3--3--3--3--3--3--2--2--2--2--2--2--2--2-|
D|--3--3--3--3--3--3--3--3--2--2--2--2--2--2--2--2-|

   GTR I
E|-------------------------------------------------|
B|-------------------------------------------------|
G|-------------------------------------------------|
D|--0--0--0--0--0--0--0--0--0--0--0--0--0--0--0--0-|
A|--0--0--0--0--0--0--0--0--0--0--0--0--0--0--0--0-|
D|--0--0--0--0--0--0--0--0--0--0--0--0--0--0--0--0-|
  |
  |GTR II
E|-------------------------------------------------|
B|-------------------------------------------------|
G|-12-12-12-11-11-11-12-12-12-11-11-11-12-12-11-11-|
D|--x--x--x--x--x--x--x--x--x--x--x--x--x--x--x--x-|
A|-10-10-10--9--9--9-10-10-10--9--9--9-10-10--9--9-|
D|-------------------------------------------------|

   GTR I,II
E|-------------------------------------------------|
B|-------------------------------------------------|
G|-------------------------------------------------|
D|--3--3--3--3--3--3--3--3--2--2--2--2--2--2--2--2-|
A|--3--3--3--3--3--3--3--3--2--2--2--2--2--2--2--2-|
D|--3--3--3--3--3--3--3--3--2--2--2--2--2--2--2--2-|

   GTR I
E|-------------------------------------------------|
B|-------------------------------------------------|
G|--5--5--5--5--5--5--5--5--5--5--5--5--5--5--5--5-|
D|--5--5--5--5--5--5--5--5--5--5--5--5--5--5--5--5-|
A|--3--3--3--3--3--3--3--3--3--3--3--3--3--3--3--3-|
D|-------------------------------------------------|
  |
  |GTR II
E|-------------------------------------------------|
B|-------------------------------------------------|
G|-17-17-17-17-17-17-17-17-17-17-17-17-17-17-17-17-|
D|--x--x--x--x--x--x--x--x--x--x--x--x--x--x--x--x-|
A|-15-15-15-15-15-15-15-15-15-15-15-15-15-15-15-15-|
D|-------------------------------------------------|

   GTR I,II
E|-------------------------------------------------|
B|-------------------------------------------------|
G|-------------------------------------------------|
D|--3--5--5--5--------3--5--5--5-------------------|
A|--3--5--5--5--x--x--3--5--5--5--x--x--x----------|
D|--3--5--5--5--x--x--3--5--5--5--x--x--x--2~------|

Riff 2

   GTR I,II
E|-------------------------------------------------|
B|-------------------------------------------------|
G|-------------------------------------------------|
D|-------------------------------------------------|
A|-------------------------------------------------|
D|--0--0-15----0--0-15----0--0-15--0-12--0-12h15-|

   GTR I,II
E|-------------------------------------------------|
B|-------------------------------------------------|
G|-------------------------------------------------|
D|-------------------------------------------------|
A|-------------------------------------------------|
D|--0--0-15----0--0-15----0--0-15--0-15--0-15h17-|

Verso 2

   GTR I,II
E|-------------------------------------------------|
B|-------------------------------------------------|
G|-------------------------------------------------|
D|-------------------------------------------------|
A|--0--0-----0--0--0-----0--0--0-----0--0--0-----0-|
D|--0--0-----0--0--0-----0--0--0-----0--0--0-----0-|
     .  .     .  .  .     .  .  .     .  .  .     .

   GTR I,II
E|-------------------------------------------------|
B|-------------------------------------------------|
G|-------------------------------------------------|
D|-------------------------------------------------|
A|--3--3-----3--3--3-----4--2--2-----2--2--2-----3-|
D|--3--3-----3--3--3-----4--2--2-----2--2--2-----3-|
     .  .     .  .  .     .  .  .     .  .  .     .

   GTR I,II
E|-------------------------------------------------|
B|-------------------------------------------------|
G|-------------------------------------------------|
D|-------------------------------------------------|
A|--0--0-----0--0--0-----0--0--0-----0--0--0-----0-|
D|--0--0-----0--0--0-----0--0--0-----0--0--0-----0-|
     .  .     .  .  .     .  .  .     .  .  .     .

   GTR I
E|-------------------------------------------------|
B|-------------------------------------------------|
G|-------------------------------------------------|
D|-------------------------------------------------|
A|--3--3-----3--3--3-----4--2--2-----2--2--2-----3-|
D|--3--3-----3--3--3-----4--2--2-----2--2--2-----3-|
  |  .  .     .  .  .     .  .  .     .  .  .     .
  |GTR II
E|-------------------------------------------------|
B|-------------------------------------------------|
G|----------------------------------------------12|
D|----------------------------------------------12|
A|-------------------------------------------------|
D|-------------------------------------------------|

   GTR I
E|-------------------------------------------------|
B|-------------------------------------------------|
G|-------------------------------------------------|
D|-------------------------------------------------|
A|--0--0-----0--0--0-----0--0--0-----0--0--0-----0-|
D|--0--0-----0--0--0-----0--0--0-----0--0--0-----0-|
  |  .  .     .  .  .     .  .  .     .  .  .     .
  |GTR II PH.
E|-------------------------------------------------|
B|-------------------------------------------------|
G|-------------------------------------------------|
D|-------------------------------------------------|
A|--------8-----------8-----------8-----------8--7-|
D|--0--0-----0--0--0-----0--0--0-----0--0--0-------|
     .  .     .  .  .     .  .  .     .  .  .

   GTR I
E|-------------------------------------------------|
B|-------------------------------------------------|
G|-------------------------------------------------|
D|-------------------------------------------------|
A|--3--3-----3--3--3-----4--2--2-----2--2--2-----3-|
D|--3--3-----3--3--3-----4--2--2-----2--2--2-----3-|
  |  .  .     .  .  .     .  .  .     .  .  .     .
  |GTR II       PH.                     PH.
E|-------------------------------------------------|
B|-------------------------------------------------|
G|-------------------------------------------------|
D|-------------------------------------------------|
A|-------12----12br--------------10-----9br--------|
D|--0--0--------------------0--0-------------------|
     .  .                    .  .

   GTR I
E|-------------------------------------------------|
B|-------------------------------------------------|
G|-------------------------------------------------|
D|-------------------------------------------------|
A|--0--0-----0--0--0-----0--0--0-----0--0--0-----0-|
D|--0--0-----0--0--0-----0--0--0-----0--0--0-----0-|
  |  .  .     .  .  .     .  .  .     .  .  .     .
  |GTR II PH.
E|-------------------------------------------------|
B|-------------------------------------------------|
G|-------------------------------------------------|
D|-------------------------------------------------|
A|--------8-----------8-----------8-----------8--7-|
D|--0--0-----0--0--0-----0--0--0-----0--0--0-------|
     .  .     .  .  .     .  .  .     .  .  .

Pre Refrão 2

   GTR II
E|-------------------------------------------------|
B|-------------------------------------------------|
G|-------------------------------------------------|
D|-12-12-12-12-12-12-12-10-12-12-12-12-12-12-12-10-|
A|-------------------------------------------------|
D|-------------------------------------------------|

Refrão

   GTR I
E|-------------------------------------------------|
B|-------------------------------------------------|
G|-------------------------------------------------|
D|--0--0--0--0--0--0--0--0--0--0--0--0--0--0--0--0-|
A|--0--0--0--0--0--0--0--0--0--0--0--0--0--0--0--0-|
D|--0--0--0--0--0--0--0--0--0--0--0--0--0--0--0--0-|
  |
  |GTR II
E|-------------------------------------------------|
B|-------------------------------------------------|
G|-12-12-12-11-11-11-12-12-12-11-11-11-12-12-11-11-|
D|--x--x--x--x--x--x--x--x--x--x--x--x--x--x--x--x-|
A|-10-10-10--9--9--9-10-10-10--9--9--9-10-10--9--9-|
D|-------------------------------------------------|

   GTR I,II
E|-------------------------------------------------|
B|-------------------------------------------------|
G|-------------------------------------------------|
D|--3--3--3--3--3--3--3--3--2--2--2--2--2--2--2--2-|
A|--3--3--3--3--3--3--3--3--2--2--2--2--2--2--2--2-|
D|--3--3--3--3--3--3--3--3--2--2--2--2--2--2--2--2-|

   GTR I
E|-------------------------------------------------|
B|-------------------------------------------------|
G|-------------------------------------------------|
D|--0--0--0--0--0--0--0--0--0--0--0--0--0--0--0--0-|
A|--0--0--0--0--0--0--0--0--0--0--0--0--0--0--0--0-|
D|--0--0--0--0--0--0--0--0--0--0--0--0--0--0--0--0-|
  |
  |GTR II
E|-------------------------------------------------|
B|-------------------------------------------------|
G|-12-12-12-11-11-11-12-12-12-11-11-11-12-12-11-11-|
D|--x--x--x--x--x--x--x--x--x--x--x--x--x--x--x--x-|
A|-10-10-10--9--9--9-10-10-10--9--9--9-10-10--9--9-|
D|-------------------------------------------------|

   GTR I,II
E|-------------------------------------------------|
B|-------------------------------------------------|
G|-------------------------------------------------|
D|--3--3--3--3--3--3--3--3--2--2--2--2--2--2--2--2-|
A|--3--3--3--3--3--3--3--3--2--2--2--2--2--2--2--2-|
D|--3--3--3--3--3--3--3--3--2--2--2--2--2--2--2--2-|

   GTR I
E|-------------------------------------------------|
B|-------------------------------------------------|
G|--5--5--5--5--5--5--5--5--5--5--5--5--5--5--5--5-|
D|--5--5--5--5--5--5--5--5--5--5--5--5--5--5--5--5-|
A|--3--3--3--3--3--3--3--3--3--3--3--3--3--3--3--3-|
D|-------------------------------------------------|
  |
  |GTR II
E|-------------------------------------------------|
B|-------------------------------------------------|
G|-17-17-17-17-17-17-17-17-17-17-17-17-17-17-17-17-|
D|--x--x--x--x--x--x--x--x--x--x--x--x--x--x--x--x-|
A|-15-15-15-15-15-15-15-15-15-15-15-15-15-15-15-15-|
D|-------------------------------------------------|

   GTR I,II
E|-------------------------------------------------|
B|-------------------------------------------------|
G|-------------------------------------------------|
D|--3--5--5--5--------3--5--5--5-------------------|
A|--3--5--5--5--x--x--3--5--5--5--x--x--x----------|
D|--3--5--5--5--x--x--3--5--5--5--x--x--x--2~------|

Riff 3

   GTR I,II
E|-------------------------------------------------|
B|-------------------------------------------------|
G|-------------------------------------------------|
D|-------------------------------------------------|
A|-------------------------------------------------|
D|--0--0-15----0--0-15----0--0-15--0-12--0-12h15-|

   GTR I,II
E|-------------------------------------------------|
B|-------------------------------------------------|
G|-------------------------------------------------|
D|-------------------------------------------------|
A|-------------------------------------------------|
D|--0--0-15----0--0-15----0--0-15--0-15--0-15h17-|

Ponte

   GTR I
E|-------------------------------------------------|
B|-------------------------------------------------|
G|-------------------------------------------------|
D|--8--8--8--8--8--8--8--8--8--8--8--8--8--8--8--8-|
A|--8--8--8--8--8--8--8--8--8--8--8--8--8--8--8--8-|
D|--8--8--8--8--8--8--8--8--8--8--8--8--8--8--8--8-|
  |
  |GTR II
E|-------------------------------------------------|
B|-------------------------------------------------|
G|-15----------------------------------17----------|
D|-------------------------------------------------|
A|-------------------------------------------------|
D|-------------------------------------------------|

   GTR I
E|-------------------------------------------------|
B|-------------------------------------------------|
G|-----------7-----------------7--------------7----|
D|--0--0-----7--------0--0-----7--------0--0--7----|
A|--0--0-----5--------0--0-----5--------0--0--5----|
D|--0--0--------------0--0--------------0--0-------|
  |
  |GTR II
E|-------------------------------------------------|
B|-------------------------------------------------|
G|-14-------------------------14----------11-12-14-|
D|-------------------------------12-14-15----------|
A|-------------------------------------------------|
D|-------------------------------------------------|

   GTR I
E|-------------------------------------------------|
B|-------------------------------------------------|
G|-------------------------------------------------|
D|--8--8--8--8--8--8--8--8--8--8--8--8--8--8--8--8-|
A|--8--8--8--8--8--8--8--8--8--8--8--8--8--8--8--8-|
D|--8--8--8--8--8--8--8--8--8--8--8--8--8--8--8--8-|
  |
  |GTR II
E|-------------------------------------------------|
B|-------------------------------------------------|
G|-15----------------------------------17----------|
D|-------------------------------------------------|
A|-------------------------------------------------|
D|-------------------------------------------------|

   GTR I
E|-------------------------------------------------|
B|-------------------------------------------------|
G|-----------7-----------------7--------------7----|
D|--0--0-----7--------0--0-----7--------0--0--7----|
A|--0--0-----5--------0--0-----5--------0--0--5----|
D|--0--0--------------0--0--------------0--0-------|
  |
  |GTR II
E|-------------------------------------------------|
B|-------------------------------------------------|
G|-14~------------------14~---------14-12-10-------|
D|-------------------------------------------12----|
A|-------------------------------------------------|
D|-------------------------------------------------|

   GTR I
E|-------------------------------------------------|
B|-------------------------------------------------|
G|-------------------------------------------------|
D|--8--8--8--8--8--8--8--8--8--8--8--8--8--8--8--8-|
A|--8--8--8--8--8--8--8--8--8--8--8--8--8--8--8--8-|
D|--8--8--8--8--8--8--8--8--8--8--8--8--8--8--8--8-|
  |
  |GTR II
E|-------------------------------------------------|
B|-------------------------------------------------|
G|-15----------------------------------17----------|
D|-------------------------------------------------|
A|-------------------------------------------------|
D|-------------------------------------------------|

   GTR I
E|-------------------------------------------------|
B|-------------------------------------------------|
G|-------------------------------------------------|
D|--7--7--7--7--7--7--7--7--7--7--7--7--7--7--7--7-|
A|--7--7--7--7--7--7--7--7--7--7--7--7--7--7--7--7-|
D|--7--7--7--7--7--7--7--7--7--7--7--7--7--7--7--7-|
  |
  |GTR II
E|-------------------------------------------------|
B|-15----------------------17----------------------|
G|-------------------------------------------------|
D|-------------------------------------------------|
A|-------------------------------------------------|
D|-------------------------------------------------|

Solo

   GTR I
E|-------------------------------------------------|
B|-------------------------------------------------|
G|-------------------------------------------------|
D|-------------------------------------------------|
A|-------------------------------------------------|
D|--0--0-15----0--0-15----0--0-15--0-12--0-12h15-|
  |
  |GTR II
E|---------------------------------------1213151213|
B|----------------------------1213151213-----------|
G|-----------------1214151214----------------------|
D|-1214151412141514--------------------------------|
A|-------------------------------------------------|
D|-------------------------------------------------|

   GTR I
E|-------------------------------------------------|
B|-------------------------------------------------|
G|-------------------------------------------------|
D|-------------------------------------------------|
A|-------------------------------------------------|
D|--0--0-15----0--0-15----0--0-15--0-15--0-15h17-|
  |
  |GTR II
E|-----20-----20-----20----------------------------|
B|-20b----20b----20b----20-20-19-17----------------|
G|----------------------------------19-------------|
D|-------------------------------------19b-r-------|
A|-------------------------------------------19b-r-|
D|-------------------------------------------------|

Refrão 2

   GTR I
E|-------------------------------------------------|
B|-------------------------------------------------|
G|-------------------------------------------------|
D|--0--0--0--0--0--0--0--0--0--0--0--0--0--0--0--0-|
A|--0--0--0--0--0--0--0--0--0--0--0--0--0--0--0--0-|
D|--0--0--0--0--0--0--0--0--0--0--0--0--0--0--0--0-|
  |
  |GTR II
E|-------------------------------------------------|
B|-------------------------------------------------|
G|-12-12-12-11-11-11-12-12-12-11-11-11-12-12-11-11-|
D|--x--x--x--x--x--x--x--x--x--x--x--x--x--x--x--x-|
A|-10-10-10--9--9--9-10-10-10--9--9--9-10-10--9--9-|
D|-------------------------------------------------|

   GTR I,II
E|-------------------------------------------------|
B|-------------------------------------------------|
G|-------------------------------------------------|
D|--3--3--3--3--3--3--3--3--2--2--2--2--2--2--2--2-|
A|--3--3--3--3--3--3--3--3--2--2--2--2--2--2--2--2-|
D|--3--3--3--3--3--3--3--3--2--2--2--2--2--2--2--2-|

   GTR I
E|-------------------------------------------------|
B|-------------------------------------------------|
G|-------------------------------------------------|
D|--0--0--0--0--0--0--0--0--0--0--0--0--0--0--0--0-|
A|--0--0--0--0--0--0--0--0--0--0--0--0--0--0--0--0-|
D|--0--0--0--0--0--0--0--0--0--0--0--0--0--0--0--0-|
  |
  |GTR II
E|-------------------------------------------------|
B|-------------------------------------------------|
G|-12-12-12-11-11-11-12-12-12-11-11-11-12-12-11-11-|
D|--x--x--x--x--x--x--x--x--x--x--x--x--x--x--x--x-|
A|-10-10-10--9--9--9-10-10-10--9--9--9-10-10--9--9-|
D|-------------------------------------------------|

   GTR I,II
E|-------------------------------------------------|
B|-------------------------------------------------|
G|-------------------------------------------------|
D|--3--3--3--3--3--3--3--3--2--2--2--2--2--2--2--2-|
A|--3--3--3--3--3--3--3--3--2--2--2--2--2--2--2--2-|
D|--3--3--3--3--3--3--3--3--2--2--2--2--2--2--2--2-|

   GTR I
E|-------------------------------------------------|
B|-------------------------------------------------|
G|--5--5--5--5--5--5--5--5--5--5--5--5--5--5--5--5-|
D|--5--5--5--5--5--5--5--5--5--5--5--5--5--5--5--5-|
A|--3--3--3--3--3--3--3--3--3--3--3--3--3--3--3--3-|
D|-------------------------------------------------|
  |
  |GTR II
E|-------------------------------------------------|
B|-------------------------------------------------|
G|-17-17-17-17-17-17-17-17-17-17-17-17-17-17-17-17-|
D|--x--x--x--x--x--x--x--x--x--x--x--x--x--x--x--x-|
A|-15-15-15-15-15-15-15-15-15-15-15-15-15-15-15-15-|
D|-------------------------------------------------|

   GTR I
E|-------------------------------------------------|
B|-------------------------------------------------|
G|-------------------------------------------------|
D|--0--0--0--0--0--0--0--0--0--0--0--0--0--0--0--0-|
A|--0--0--0--0--0--0--0--0--0--0--0--0--0--0--0--0-|
D|--0--0--0--0--0--0--0--0--0--0--0--0--0--0--0--0-|
  |
  |GTR II
E|-------------------------------------------------|
B|-------------------------------------------------|
G|-12-12-12-11-11-11-12-12-12-11-11-11-12-12-11-11-|
D|--x--x--x--x--x--x--x--x--x--x--x--x--x--x--x--x-|
A|-10-10-10--9--9--9-10-10-10--9--9--9-10-10--9--9-|
D|-------------------------------------------------|

   GTR I,II
E|-------------------------------------------------|
B|-------------------------------------------------|
G|-------------------------------------------------|
D|--3--3--3--3--3--3--3--3--2--2--2--2--2--2--2--2-|
A|--3--3--3--3--3--3--3--3--2--2--2--2--2--2--2--2-|
D|--3--3--3--3--3--3--3--3--2--2--2--2--2--2--2--2-|

   GTR I
E|-------------------------------------------------|
B|-------------------------------------------------|
G|-------------------------------------------------|
D|--0--0--0--0--0--0--0--0--0--0--0--0--0--0--0--0-|
A|--0--0--0--0--0--0--0--0--0--0--0--0--0--0--0--0-|
D|--0--0--0--0--0--0--0--0--0--0--0--0--0--0--0--0-|
  |
  |GTR II
E|-------------------------------------------------|
B|-------------------------------------------------|
G|-12-12-12-11-11-11-12-12-12-11-11-11-12-12-11-11-|
D|--x--x--x--x--x--x--x--x--x--x--x--x--x--x--x--x-|
A|-10-10-10--9--9--9-10-10-10--9--9--9-10-10--9--9-|
D|-------------------------------------------------|

   GTR I,II
E|-------------------------------------------------|
B|-------------------------------------------------|
G|-------------------------------------------------|
D|--3--3--3--3--3--3--3--3--2--2--2--2--2--2--2--2-|
A|--3--3--3--3--3--3--3--3--2--2--2--2--2--2--2--2-|
D|--3--3--3--3--3--3--3--3--2--2--2--2--2--2--2--2-|

   GTR I
E|-------------------------------------------------|
B|-------------------------------------------------|
G|--5--5--5--5--5--5--5--5--5--5--5--5--5--5--5--5-|
D|--5--5--5--5--5--5--5--5--5--5--5--5--5--5--5--5-|
A|--3--3--3--3--3--3--3--3--3--3--3--3--3--3--3--3-|
D|-------------------------------------------------|
  |
  |GTR II
E|-------------------------------------------------|
B|-------------------------------------------------|
G|-17-17-17-17-17-17-17-17-17-17-17-17-17-17-17-17-|
D|--x--x--x--x--x--x--x--x--x--x--x--x--x--x--x--x-|
A|-15-15-15-15-15-15-15-15-15-15-15-15-15-15-15-15-|
D|-------------------------------------------------|

   GTR I,II
E|-------------------------------------------------|
B|-------------------------------------------------|
G|-------------------------------------------------|
D|--3--5--5--5--------3--5--5--5-------------------|
A|--3--5--5--5--x--x--3--5--5--5--x--x--x----------|
D|--3--5--5--5--x--x--3--5--5--5--x--x--x--2~------|

Outro

   GTR I,II
E|-------------------------------------------------|
B|-------------------------------------------------|
G|-------------------------------------------------|
D|-------------------------------------------------|
A|-------------------------------------------------|
D|--0--0-15----0--0-15----0--0-15--0-12--0-12h15-|

   GTR I,II
E|-------------------------------------------------|
B|-------------------------------------------------|
G|-------------------------------------------------|
D|-------------------------------------------------|
A|-------------------------------------------------|
D|--0--0-15----0--0-15----0--0-15--0-15--0-15h17-|

   GTR I,II
E|-------------------------------------------------|
B|-------------------------------------------------|
G|-------------------------------------------------|
D|-------15---------15---------15----12----12h15-|
A|--0--0-15----0--0-15----0--0-15--0-12--0-12h15-|
D|--0--0-15----0--0-15----0--0-15--0-12--0-12h15-|
     .  .        .  .        .  .     .     .

   GTR I,II
E|-------------------------------------------------|
B|-------------------------------------------------|
G|-------------------------------------------------|
D|-------15---------15---------15----15----15h17-|
A|--0--0-15----0--0-15----0--0-15--0-15--0-15h17-|
D|--0--0-15----0--0-15----0--0-15--0-15--0-15h17-|
     .  .        .  .        .  .     .     .
Composição de John 5
Colaboração e revisão:
  • Julio Dourado
369 exibições
    • ½ Tom
    • A
    • Bb
    • B
    • C
    • Db
    • D
    • Eb
    • E
    • F
    • F#
    • G
    • Ab
  • Adicionar à lista

    0 comentários

    Ver todos os comentários

    Conseguiu tocar?

    0 Tocaram 0 Ainda não

    Grave um vídeo tocando What Were You Expecting e nos envie!

    00:00 / 00:00
    Outros vídeos desta música
    Repetir Qualidade Automático
    Outros vídeos desta música
    00:00 / 00:00
    Automático

    Cifra Club Pro

    Aproveite o Cifra Club com benefícios exclusivos e sem anúncios
    Cifra Club Pro
    Aproveite o Cifra Club com benefícios exclusivos e sem anúncios
    OK