Cifra Club

Fire Escape

Half Moon Run

Cifra: Principal (violão e guitarra)
tom: C
Acordes:

     C6/A     C/G       E5+      F       C6     G/D      C     Eb/Bb
E|---12---|---12---|---12---|---8---|---5---|---7---|---3---|---4---|
B|---13---|---13---|---13---|---10--|---5---|---8---|---5---|---5---|
G|---14---|---12---|---x----|---10--|---5---|---7---|---5---|---4---|
D|---x----|---x----|---14---|---x---|---x---|---x---|---x---|---x---|
A|---x----|---x----|---x----|---x---|---x---|---x---|---x---|---x---|
E|---x----|---x----|---x----|---x---|---x---|---x---|---x---|---x---|

Intro: C6/A C/G  E5+ C/G C6/A

     (x6)        (x4)
E|-------12-|-------12-|-------12-------12-------12-|
B|----13----|----13----|----13-------13-------13----|
G|-14-------|-12-------|----------12-------14-------|
D|----------|----------|-14-------------------------|
A|----------|----------|----------------------------|
E|----------|----------|----------------------------|

Refrão: F  C6 G/D C  Eb/Bb (x2)

     F (x6)   C6 (x3)   G/D (x3)   C (x6)   Eb/Bb (x6)
E|-------8-|------5--|------7--|------3--|-------4----|
B|----10---|----5----|----8----|----5----|-----5------|
G|-10------|--5------|--7------|--5------|---4--------|
D|---------|---------|---------|---------|------------|
A|---------|---------|---------|---------|------------|
E|---------|---------|---------|---------|------------|

C6/A            C/G  E5+ C/G
    Hey dark eyes
C6/A               C/G
    Rest with me while as i drift closer to sleep
C6/A               C/G  E5+ C/G
    But still cannot
C6/A              C/G
    Still cannot find no peace

    F            C6
And you let go of glass
   G/D      C
At our feet
                      Eb/Bb
It rained through the night
    F            C6   G/D    C
And you take the fire escape
                           Eb/Bb
Run down the street to the church

Ponte (C6/A C/G  E5+ C/G C6/A)

C6/A             C/G  E5+ C/G
    Hey murderer
C6/A            C/G
    The killing keeps us close enough
C6/A            C/G  E5+ C/G
    Hey murderer
C6/A                           C/G
    Every breath you steal is a breath that i breathe for
F             C6
You let go of glass
   G/D     C
At our feet
                      Eb/Bb
It rained through the night
    F            C6   G/D    C
And you take the fire escape
                           Eb/Bb
Run down the street to the church
F             C6
You let go of glass
   G/D     C
At our feet
                      Eb/Bb
It rained through the night
F            C6   G/D   C
You take the fire escape
                           Eb/Bb
Run down the street to the church

Solos de gaita:

1º Solo

E|-12~-10~-8~---12~-12-12~--15-17-12~-10\9/10\9/10~-8~~-|
B|------------------------------------------------------|
G|------------------------------------------------------|
D|------------------------------------------------------|
A|------------------------------------------------------|
E|------------------------------------------------------|

2º Solo

E|-12~-13-15-15/17-15-13-12--10\9/10~-8-|
B|--------------------------------------|
G|--------------------------------------|
D|--------------------------------------|
A|--------------------------------------|
E|--------------------------------------|
00:00 / 00:00
Outros vídeos desta música
Repetir
Outros vídeos desta música
Compositor não encontrado.
Colaboração e revisão:
  • Eudes
493 exibições
  • Simplificar cifra
    • ½ Tom
    • A
    • Bb
    • B
    • C
    • Db
    • D
    • Eb
    • E
    • F
    • F#
    • G
    • Ab
  • Adicionar à lista

    0 comentários

    Ver todos os comentários

    Entre para oCifra Club PRO

    Tenha acesso a benefícios exclusivos no App e no Site

    • Chega de anúncios

    • Prioridade de compra em lançamentos

    • Mais recursos no app do Afinador

    • Atendimento Prioritário

    • Descontos nos produtos Cifra Club

    • Ajude a produzir mais conteúdo

    00:00 / 00:00

    Cifra Club Pro

    Aproveite o Cifra Club com benefícios exclusivos e sem anúncios
    Cifra Club Pro
    Aproveite o Cifra Club com benefícios exclusivos e sem anúncios
    OK