Cifra Club

Need It

Half Moon Run

Cifra: Principal (violão e guitarra)
tom: C
Intro x2: Am G C F7M 

E|-------------------------------------------------------------------------|
B|----10-------10-12--12-10----12-13--15/17-15-17-18--20--17/18\17---------|
G|-/9-------/9-------------------------------------------------------------|
D|-------------------------------------------------------------------------|
A|-------------------------------------------------------------------------|
E|-------------------------------------------------------------------------|

E|-12/17---12---------------------------------------------|
B|--------------10/12\10-8----10/12-10-8-5-----8-6-5-3\1--|
G|--------------------------9----------------5------------|
D|--------------------------------------------------------|
A|--------------------------------------------------------|
E|--------------------------------------------------------|

Base tocada nos versos:

    Dm (8x)          Am (8x)          E4 (4x)
E|-5-5-5-5-5-5-5-5--5-5-5-5-5-5-5-5--8--8--8--8----------|
B|-6-6-6-6-6-6-6-6--5-5-5-5-5-5-5-5--10-10-10-10---------|
B|-7-7-7-7-7-7-7-7--5-5-5-5-5-5-5-5--9--9--9--9----------|
G|-------------------------------------------------------|
D|-------------------------------------------------------|
A|-------------------------------------------------------|
E|-------------------------------------------------------|

       Dm            Am
In a dream, i was untrue
           Dm                      F7M    C
Shouted in sweats, And I knew it was you
        Dm                     Am
All the while as I traced your spine
            Dm                    F7M   C   Am
Tore out my hair as my peace of mind

Refrão:                       G                C
Well if you breathe in, I'll breathe in
           F7M      Am
Slowly let go
               G                C
If you need it, Then I need it,
           F7M      Am
Only we'll know

          Dm                   Am
Can't be the same, As we lie in a lie
             Dm                     F7M   C   Dm
Knowing full well, Your virtue's my vice
                    Am                      Dm
In the night we are one, 'Til the moment is gone,
                      F7M   C   Am
'Til my race has been run

Ponte:
Em                    Dm                        C
And those sorry words, Make me not know my mind
                           F7M
And they're so afraid for use

(Am  G  C  F7M) (2x)

                      G                      C
And if you breathe in, Then I'll breathe in
               F7M
And only we'll know
00:00 / 00:00
Outros vídeos desta música
Repetir
Outros vídeos desta música
Compositor não encontrado.
Colaboração e revisão:
  • Eudes
837 exibições
    • ½ Tom
    • A
    • Bb
    • B
    • C
    • Db
    • D
    • Eb
    • E
    • F
    • F#
    • G
    • Ab
  • Adicionar à lista

    0 comentários

    Ver todos os comentários

    Entre para oCifra Club PRO

    Tenha acesso a benefícios exclusivos no App e no Site

    • Chega de anúncios

    • Prioridade de compra em lançamentos

    • Mais recursos no app do Afinador

    • Atendimento Prioritário

    • Descontos nos produtos Cifra Club

    • Ajude a produzir mais conteúdo

    00:00 / 00:00

    Cifra Club Pro

    Aproveite o Cifra Club com benefícios exclusivos e sem anúncios
    Cifra Club Pro
    Aproveite o Cifra Club com benefícios exclusivos e sem anúncios
    OK