Cifra Club

Aprenda

Weight

Hardline

Cifra: Principal (violão e guitarra)
Tom: F
(intro)
E|----------------------------------|--------------------------------|
B|----------------------------------|--------------------------------|
G|----------------------------------|--------------------------------|
D|--10-10-10-10---6-6-6-6---6-6-6-6-|----8-8-8-8---10-10-10-10---6-6-|
A|--10-10-10-10---6-6-6-6---6-6-6-6-|----8-8-8-8---10-10-10-10---6-6-|
E|--8--8--8--8----4-4-4-4---4-4-4-4-|----6-6-6-6---8--8--8--8----4-4-|

------------------------------|
------------------------------|
------------------------------|
--6-6---6-6-6-6---8-8-8-8-8-8-|
--6-6---6-6-6-6---8-8-8-8-8-8-|
--4-4---4-4-4-4---6-6-6-6-6-6-|

----------------------------------|--------------------------------|
----------------------------------|--------------------------------|
----------------------------------|--------------------------------|
--10-10-10-10---6-6-6-6---6-6-6-6-|----8-8-8-8---10-10-10-10---6-6-|
--10-10-10-10---6-6-6-6---6-6-6-6-|----8-8-8-8---10-10-10-10---6-6-|
--8--8--8--8----4-4-4-4---4-4-4-4-|----6-6-6-6---8--8--8--8----4-4-|

-------------------------------|
-------------------------------|
-------------------------------|
--6-6---6--x-x-x-x-x-x-x-x-x-x-|
--6-6---6--x-x-x-x-x-x-x-x-x-x-|
--4-4---4--x-x-x-x-x-x-x-x-x-x-|

(verso)
E|---------------------------------------|
B|---------------------------------------|
G|---------------------------------------|
D|--10-10-10-10---10-10-10-10---10-10----|
A|--10-10-10-10---10-10-10-10---10-10----|
E|--8--8--8--8----8--8--8--8----8--8-----|

----------------------------|----------------------------|
----------------------------|----------------------------|
----------------------------|----------------------------|
--6-6-6-6---6-6-6-6---6-6---|--8-8-8-8---8-8-8-8---8-8---|
--6-6-6-6---6-6-6-6---6-6---|--8-8-8-8---8-8-8-8---8-8---|
--4-4-4-4---4-4-4-4---4-4---|--6-6-6-6---6-6-6-6---6-6---|

(final)
----------------------------|
----------------------------|
----------------------------|
--6-6-6-6---6-6-6-6---6-6---|
--6-6-6-6---6-6-6-6---6-6---|
--4-4-4-4---4-4-4-4---4-4---|

----|
----|
----|
--6-|
--6-|
--4-|

(refrão)
----------------------------------|--------------------------------|
----------------------------------|--------------------------------|
----------------------------------|--------------------------------|
--10-10-10-10---6-6-6-6---6-6-6-6-|----8-8-8-8---10-10-10-10---6-6-|
--10-10-10-10---6-6-6-6---6-6-6-6-|----8-8-8-8---10-10-10-10---6-6-|
--8--8--8--8----4-4-4-4---4-4-4-4-|----6-6-6-6---8--8--8--8----4-4-|

------------------------------|
------------------------------|
------------------------------|
--6-6---6-6-6-6---8-8-8-8-8-8-|
--6-6---6-6-6-6---8-8-8-8-8-8-|
--4-4---4-4-4-4---6-6-6-6-6-6-|

---------------------|--------------------|--------------------|
---------------------|--------------------|--------------------|
---------------------|--------------------|--------------------|
--10--------8--------|--6--------8--------|--5--------3--------|
--10--------8--------|--6--------8--------|--5--------3--------|
--8---------6--------|--4--------6--------|--3--------1--------|

(ponte 3x)
|----------------------------|---------------------------|
|----------------------------|---------------------------|
|----------------------------|---------------------------|
|----------------------------|---------------------------|
|----------------------------|-----------------6-8-8-----|
|--6-8--8--8-6--6-8--8--8-6--|-6-8-8-8-6-4-6-------------|

(2x)
|----------------------|---------|
|----------------------|---------|
|----------7~-----8~---|----10---|
|--10~-----------------|---------|
|----------------------|---------|
|----------------------|---------|
Composição de Johnny Gioeli
Colaboração e revisão:
  • Felipe Oliveira
97 exibições
    • ½ Tom
    • A
    • Bb
    • B
    • C
    • Db
    • D
    • Eb
    • E
    • F
    • F#
    • G
    • Ab
  • Adicionar à lista

    0 comentários

    Mostrar mais comentários

    Conseguiu tocar?

    0 Tocaram 0 Ainda não

    Grave um vídeo tocando Weight e mande pra gente!

    00:00 / 00:00
    outros vídeos desta música
    repetir qualidade Automático
    Outros vídeos desta música
    00:00 / 00:00
    Automático

    Cifra Club Pro

    Aproveite o Cifra Club com benefícios exclusivos e sem anúncios
    Cifra Club Pro
    Aproveite o Cifra Club com benefícios exclusivos e sem anúncios
    OK