Cifra Club

A Barca da Vida

Harpa Cristã

Cifra: Principal
exibições 9.999
Tom: A
E|---------------------5-|---------0---5---5---6-|-8-----------5-------8-|
B|---------------------6-|-6---6---8---6---6---6-|-6-----------6-------6-|
G|---------------------5-|-5---5---5---5---5---5-|-5-----------5-------5-|
D|-----------------------|-7---7---------------5-|-7-------------------7-|
A|---------------------8-|-8---8-------8---8-----|-------------8---------|
E|-----------------------|---------8-------------|-----------------------|

E|-8---10--8---6---6---5-|-0-------------------5-|---------0--------------|
B|-6---6---6---8---8---6-|-8-------------------6-|-6---6---8---10--10--11-|
G|-5-------5---5---5---5-|-5-------------------5-|-5---5---5---10--10--10-|
D|-7---8---7-------------|-----------------------|-7---7-------10--10--10-|
A|-------------7---7---8-|---------------------8-|-8---8---------------10-|
E|-----------------------|-8---------------------|---------8---13--13-----|

E|---------------------10-|-10----------3---5---7-|-8--------------------|
B|-13----------12------0--|-0---13--12--6---6---6-|-5--------------------|
G|-10----------12------12-|-12--12--10--4---5-----|-5--------------------|
D|-10----------12---------|-----10--12--5---7-----|----------------------|
A|-12----------10---------|-----------------------|----------------------|
E|---------------------13-|-13--12--10----------3-|-8--------------------|

E|-8-----------5-------5-|-6--------------------|-------------8----------|
B|-6-----------6-------6-|-8-----------8--------|-10----------10--11--10-|
G|-------------5-------5-|-5-----------9--------|-10--------------12--10-|
D|-7---------------------|-------------10-------|-10----------10--10--10-|
A|-8-----------8-------8-|-7--------------------|-8-----------8---7---8--|
E|-----------------------|-------------8--------|------------------------|

E|----------------------|-8-----------5-------5-|-6-------8---10-------|
B|-8--------------------|-------------6-------6-|-6-------6------------|
G|-9--------------------|-10----------5-------8-|-7-----------10-------|
D|-10-------------------|-7---------------------|---------7------------|
A|----------------------|-8-----------8-------8-|---------8---13-------|
E|-8--------------------|-----------------------|-6--------------------|

E|-----10-----------------|----------------------|
B|-13------13--8---11--10-|----------------------|
G|-10------10--9-------9--|-10-------------------|
D|-10------10--10------8--|-7--------------------|
A|-12--13--12------10-----|-8--------------------|
E|-------------8-------8--|----------------------|
Acordes para:
    Colaboração e revisão:
    • Helon Oliveira

    0 comentários

      mostrar mais comentários

      Conseguiu tocar?

      0tocaram0ainda não

      Grave um vídeo tocando A Barca da Vida e mande pra gente!

      00:00 / 00:00
      outros vídeos desta música
      repetirqualidadeautomática
      Outro vídeos desta música
        00:00 / 00:00
        automática
        OK