Cifra Club

Black Friday Cifra Club

A Cidade do Bom Deus

Harpa Cristã

Cifra: Principal (violão e guitarra)
tom: F
E|----------------|------------0----|-10-----------------|-3---5---8----|
B|---------10-----|-11--10----------|-------13--13-11-10-|-3---6-6-5----|
G|-10---12-10--12-|---------12---10-|-------10--12----10-|-----7---5----|
D|-10---10-10--10-|-10--10--10---10-|-12-14-10--10----10-|--------------|
A|-12---13--------|-10------13---12-|-13----12-----------|--------------|
E|-13---13-13--12-|-----13--8----13-|-----------12----13-|-6---7---8----|

E|-----5---------|-6---5-----------|-8---6---5----5-|-7----7--8----|
B|-8-------8-5---|---------8-5-----|-6---8--------6-|-6----6--5----|
G|-5---5---5---5-|-5---5---5---5---|-5---7-9-10---7-|-7----7--5----|
D|-----------5---|-5---------5-----|----------------|-5----5-------|
A|-7---8---7-----|-7---8---7-------|---------5----5-|--------------|
E|-8---8---8---8-|---------8-----6-|-5---6-8--------|---------8----|

E|-13-----12-10---8--|-10----8----------|-0-----5-6----10-6---|-----5-3------|
B|--------------8-10-|-6---6---13-11-10-|-8-----6-8-13----6-8-|-6---5---6----|
G|-10--10----10------|---------12----10-|-5---5-----10----7-7-|-5---5-3------|
D|-10--10----8----7--|-8---7---10----10-|-----------10------8-|-7-------7----|
A|-12--12---------8--|-----8------------|-----------0---------|-----3---8----|
E|-------------------|-6-------12----13-|-8---6-----------6---|-8------------|

E|--------------|
B|--------------|
G|--------------|
D|--------------|
A|--------------|
E|--------------|

00:00 / 00:00
Outros vídeos desta música
Repetir
Outros vídeos desta música
Compositor não encontrado.
Colaboração e revisão:
  • Helon Oliveira
8.597 exibições
  • Simplificar cifra
    • ½ Tom
    • A
    • Bb
    • B
    • C
    • Db
    • D
    • Eb
    • E
    • F
    • F#
    • G
    • Ab
  • Adicionar à lista

    0 comentários

    Ver todos os comentários

    Entre para oCifra Club PRO

    Tenha acesso a benefícios exclusivos no App e no Site

    • Chega de anúncios

    • Prioridade de compra em lançamentos

    • Mais recursos no app do Afinador

    • Atendimento Prioritário

    • Descontos nos produtos Cifra Club

    • Ajude a produzir mais conteúdo

    00:00 / 00:00

    Cifra Club Pro

    Aproveite o Cifra Club com benefícios exclusivos e sem anúncios
    Cifra Club Pro
    Aproveite o Cifra Club com benefícios exclusivos e sem anúncios
    OK